Ayumi Hamasaki - Seasons Chords & Tabs

 

Seasons Chords & Tabs

Ayumi Hamasaki Chords & Tabs

Version: 1 Type: Tab 0 ratings
1 star 2 stars 3 stars 4 stars 5 stars
comments

Seasons Tab

Seasons
	Aymumi Hamasaki
	tabbed by SJ (kirei_008@hotmail.com)

----------2--
----------2--
----------4--
-1--------4--
----4--1--2--
-------------

Intro/ Inbetween chorus and next verse
----------------------------------
----------------------------------
-----7------7------------10-------
---7------7---------10---------9--
-5-----5---------10---------10----
---------------8-------8----------

-----------------------------------
-----------------------------------
-----7------7------------9-9-------
---7------7---------10--10---10----
-5-----5---------10-----10------10-
---------------8-------------------

----------------------------------
----------------------------------
-----7------7------------10-------
---7------7---------10---------9--
-5-----5---------10---------10----
---------------8-------8----------

-----------------------------------
-----------------------------------
-----7------7------------9---------
---7------7---------10--10---------
-5-----5---------10-----10---------
---------------8-------------------

[ Tab from: http://www.guitartabs.cc/tabs/a/ayumi_hamasaki/seasons_tab.html ]
Verse
--------------
--------------
--------------
-7------------
-5--8--10--8--
----6---8--6--

Pre Chorus
---------------
---------------
---------------
----6---8------
-3--5---6---6--
-1----------4--

Pre Chorus Guitar 2
	*Play this about 3 times
------------------------------------
------------------------------------
-[--8-*--8---]---8------10---8---8--
-[8----8---8-]-8---8--8----8---8-8--
---------------------------------6--
------------------------------------

Chorus
---------------------------------------------------
---------------------------------------------------
---------------------------------------------------
----------------5----5-3---------------------5-----
-6--5--3--5--6--3-6--3-1-6-5--6--5--3--5--6--3--6--
-4--3--1--3--4----4------4-3--4--3--1--3--4-----4--

Solo
----------------------------------
------------------------------20--
--s16-11-s18-15-11-16b-13--17-----
----------------------------------
----------------------------------
----------------------------------

-------------------------16-15--
----10----------------16--------
-18----18-16-13----15-----------
----------------14--------------
--------------------------------
--------------------------------
Comments