Ayumi Hamasaki - Evolution Chords & Tabs

 

Evolution Chords & Tabs

Ayumi Hamasaki Chords & Tabs

Version: 1 Type: Tab 0 ratings
1 star 2 stars 3 stars 4 stars 5 stars
comments

Evolution Tab

	                         Ayumi Hamasaki-Evolution
<<------------------------------------------------------------------------>>
  I watched the video alot so i should have most of the power chords correct.
  The solo is insane but i think i got most of it tabbed out correct if not u can email 
  your corrections .
<<------------------------------------------------------------------------>>
Tabbed by Twilight_Master


Standard tuning (Play entire song with phase shifter and distortion)

Intro/verse
e |---------------------------------|-------------------|
b |---------------------------------|-------------------|
g |---------------------------------|-------------------|
d |---------------------------------|--6---9---4---2----|
a |--------------------------2-4-2--|--6---9---4---2----|
E |-2-3-4----2-3-4----2-3-4---------|--4---7---2---0----|
  Play Twice                         play twice


  Chorus(strumming)
e |--------------------------------------|
b |--------------------------------------|
g |---7--10------------7--3-----5--------|
d |---7--10--10--8-----7--3--5--5--------|
a |---5--8---10--8-----5--1--5--3--------|
E |----------8---6-----------3-----------|

  Play intro/verse

  Play chorus Twice

 Solo with whammy bar   (use Whammy bar when u see ^ above notes)
[ Tab from: http://www.guitartabs.cc/tabs/a/ayumi_hamasaki/evolution_tab.html ]
                                                              ^
e |--------------------------------------|----------------------------------|
b |--------------------------------------|---15b--16b--------4/2----0-1-3-0-|
g |--------------------------------------|-------------------4/2------------|
d |--------------------------------------|-------------------4/2------------|
a |--------------------------------------|----------------------------------|
E |--7-8-9-10-11-12-13-14-15-------------|----------------------------------|
     play these note sliding up fast


     ^^^^        (Tremolo picking for 15 to 11)
e |--16--16b-15b-15-14-13-12-11---------------------15--17b------|
b |-------------------------------14b--11b---9b------------------|
g |--------------------------------------------------------------|
d |--------------------------------------------------------------|
a |--------------------------------------------------------------|
E |--------------------------------------------------------------|

e |------------------------|
b |------------------------|
g |------10----------------|
a |--12--10--8---10--------|
d |--12--8---8---10--------|
E |--10------6---8---------|
  Play twice

Play chorus twice


This the last chord you just strum really fast at the end
e |-------|
b |-------|
g |---8---|
d |---8---|
a |---6---|
E |-------|

 The End
<<------------------------------------------------------------------------>>
  Feel free to use this tab on your website just be sure to email me first at
    Twilight_Master@animedge.net
  if there are any corrections,comments,deaththreats,email me.
<<------------------------------------------------------------------------>>
Comments