Ayumi Hamasaki - Daybreak Chords & Tabs

 

Daybreak Chords & Tabs

Ayumi Hamasaki Chords & Tabs

Version: 1 Type: Tab 0 ratings
1 star 2 stars 3 stars 4 stars 5 stars
comments

Daybreak Tab

Daybreak
	Ayumi Hamasaki	
	tabbed by SJ (kirei_008@hotmail.com)

Distortion riff/ played after the chorus
--------------------
--------------------
--------------------
-6--5--3--4---------
-4--3--1--2--4--6---
-------------2--4---

Chorus
--------------
--------------
--------------
-6------------
-4--6--3---4--
----4--1---2--

Solo
----------------------------------------
----------------------------------------
----------------------------------------
-15b---13-13-11-------------------------
----------------13-11-------------------
----------------------13-11-9-11-9-6-6--
[ Tab from: http://www.guitartabs.cc/tabs/a/ayumi_hamasaki/daybreak_tab.html ]
----------------------------------------
-------10b----10---10b--13b--15b--17b---
-10-13-----13---------------------------
----------------------------------------
----------------------------------------
----------------------------------------

----------------------------------------
----------------------------------------
-17-17-17-17-18-------------------------
----------------18--18-16----------16-15
--------------------------18-18-18------
----------------------------------------

------------------------------------
------------------------------------
--17-17-17-17-18--------------------
-----------------18-18-16----18-20--
--------------------------18--------
------------------------------------
Comments