Aystein Sunde - Jaktprat Chords & Tabs

 

Jaktprat Chords & Tabs

Aystein Sunde Chords & Tabs

Version: 1 Type: Tab 0 ratings
1 star 2 stars 3 stars 4 stars 5 stars
comments

Jaktprat Tab

   
Amazing Norwegian Singer/songwriter...
Mean mean guitar.

-------------------------------------------------------------------------------
			     Jaktprat - Řystein Sunde
-------------------------------------------------------------------------------
Tabbed by:Espen Rian Skog
Email:Espenskog@gmail.com

Tuning:EADGBE

This riff is based on a regular C-major scale, he uses it in alot of songs.
Just form ordinary chordshapes and work from there.

     G                   c            D                       G
e|---3-----3------------0-------0-----2------2----2-------3-----3-----3------|
B|---2-----0------------1-------1-----3------3----3-------0-----0-----0------|
G|---0----(0)-----------0-------0-----------------------------0--------------|
D|-------------------------0h2------0-----1------2----4-0-----------3--------|
A|-----0h2------------3------------------------------------------------------|
E|-3-------------------------------------------------------------------------|
[ Tab from: http://www.guitartabs.cc/tabs/a/aystein_sunde/jaktprat_tab.html ]
     c            D                G 
e|----0------0------2--------------3-----------------3-----------------------|
B|----1------1------3--------------0-----------------0-----------------------|
G|----0------0------2--------------0-----------------0-----------------------|
D|--2------1------0-------------------------(0h2)----------------------------|
A|-------------------------2p0---------0h2-----------------------------------|
E|------------------------------2--------------------------------------------|

This is the basis of the riff, it is actually played with a lot more doodling, 
and as you develop som speed you should try and fit in more fingerpicking, kinda like this:


e|---3--3---3---3----->
B|----2-------0------->
G|---0-----(0)-------->
D|-------------------->
A|------0h2----------->
E|-3------------------>

Great song anyways... love feedback... especially corrections...

| /  slide up
| \  slide down
| h  hammer-on
| p  pull-off
| ~  vibrato
| +  harmonic
| x  Mute note
===============================================================================
Comments