Aynsley Lister - Hero Chords & Tabs

 

Hero Chords & Tabs

Aynsley Lister Chords & Tabs

Version: 1 Type: Tab 0 ratings
1 star 2 stars 3 stars 4 stars 5 stars
comments

Hero Tab

   
Hero
Aynsley Lister

Tab by Peatemark@hotmail.com
Great player-Great band- great album  www.aynsleylister.co.uk

As with all Aynsley’s songs - tune down half step (D#)

(b) = bend
(br) = bend and release
(rb) = reverse bend

Intro

(Riff 1)			       Fill1 		     Fill2
|------------------------------||-----|---------------------|-----------0-|
|------------------------------||-----|---------------------|-----------0-|
|--------1--------0-----0------||-----|--1------------------|-2(br)0------|
|--------2--------0-----0------||-X 3-|--2------------------|--------2----|
|--------2---242-----4----4/2--||-----|--2---454545-5/7-~~~~|-------------|
|----/-0-0---------------------||-----|0-0------------------|----------0--|

(w/riff 2)
The sun was shining but you cast a cloud
It started raining u didn’t hang around 		(w/riff 1 x 4)
You spend my money not a cent of your own
Give me the bill for your ticket home			(w/riff 1 x 4)

(Riff 2)	                                                  Fill3 
|---------|----|----------------||--------------------------|---||--------|
|---------|----|-3--------------||--------------------------|---||-12~~---|
|---------|----|-2--------------||-----1-------0-----0------|---||-12~~---|
|---------|X 3-|-0--------------||-----2-------0-----0------|X 3||-----14~|
|-5/7--77-|----|-0--454545-5/7--||-----2---242-----4----4/2-|---||--------|
|-3/5--55-|----|----------------||/-0--0--------------------|---||--------|
 
D                         D                A
You wanna be my hero but you let me down                     Fill 4
|--2----------2-----------------|--------------------------|-|-------------|
|--3----------3----------2------|--------------------------|-|-------------|
|--2----------2----------2------|-----1-------0-----0------|-|-7~~~~--5\---|
|--0----------0----------2------|-----2-------0-----0------|-|-7~~~~-------|
|------------------------0------|-----2---242-----4----4/2-|-|-------------|
|---------------------------3---|-/-0-0--------------------|-|-------------|

Your telling me it’s the way to go 
I followed you down that nowhere road 	(w/riff 1 x 4)
We talked about it into the night 
When it all goes wrong 
I'm the one who’s gotta make it right   (w/riff 1 x 4)

Fill 5
|---------|---|----------------|-------------------------|---|------------|
|---------|---|-3--------------|-------------------------|---|-14(br)12---|
|---------|---|-2--------------|-----1------0-----0------|---|-14(br)12---|
|-5/7--77-|X 3|-0--------------|-----2------0-----0------|X 3|----------14|
|-x-x--xx-|---|-0--454545-5/7--|-----2--242-----4----4/2-|---|------------|
|-3/5--55-|---|----------------|/-0--0-------------------|---|------------|

You wanna be my hero but you let me down	(w/Riff 1 x 4)


Solo
|-------------------------------|------------------------------|
|-------------/5~~--------------|--------------/5~~------------|
|-------------/4~~-----------xx-|--------------/4~~------------|
|----------------------------xx-|------------------------------|
|--4~~~-----4-------------4--xx-|-4~~~~------4-----------------|
|------4--7----------4--7-------|-------4--7---------4-7-4-----|


w/wah 
|---------------------------------|---------------------------------------|
|-12~-9~---------12~-9~-----------|-12(br)----12(br)----12(b2)-~~~~~~~~---|
|-------11~-9~---------11~-9~-----|---------------------------------------|
|-------------11~-----------11~---|---------------------------------------|
|---------------------------------|---------------------------------------|
|---------------------------------|---------------------------------------|

	
      slow bend
|----------------|------------------|-------------------------------------|
|----------------|------------------|------12~~--------------15-----------|
|----------------|------------------|--/14-12~~------------12---14(br)12~~|
|--7(b2)--~~~~~--|---7(br)-5--------|----------14-12-14~~~----------------|
|----------------|-----------7~~~---|-------------------------------------|
|----------------|------------------|-------------------------------------|

	
|--------------------------------------------------|	
|-12(br)-12(rb)--9-12(b2)—12(br)—12(br)-12(br)--12-|	
|--------------------------------------------------|	
|--------------------------------------------------|	
|--------------------------------------------------|	
|--------------------------------------------------|	


|---------16-----16-------16--------16---------16------------|
|--/17-19—--19(b2)---19(b2)----19(b2)----19(b2)--------------|
|------------------------------------------------------------|
|------------------------------------------------------------|
|------------------------------------------------------------|
|-----------------------------------------------------12\--0-|

[ Tab from: http://www.guitartabs.cc/tabs/a/aynsley_lister/hero_tab.html ]
|--------------------|--------------------|
|--------------------|--------------------|
|-1-----0----0-------|---1----------------|	(w/Riff 1 x 2)
|-2-----0----0-------|---2----------------|
|-2—242---4-----4/2--|---2---454545/7~~---|
|-0------------------|-0-0-\--------------|

It all seems rosy rite from the start
It’s all gone wrong you are tearing me apart 	w/riff 1 x 4 & Fill 2)
You spend my money not a cent of your own
Give me the bill for your ticket home		(w/riff 1 x 4 & Fill 5)

You wanna be my hero but you let me down 	(w/Riff 1 x 4)	
You wanna be my hero but you let me down 
Let me down

3.39 - End solo 
|----------------|-----------------|--------------------------------------|
|----------------|-----------------|-------------10(b2)~~~~--8-10-8—10~~~~|
|----------------|--7(b2)~~~~~-----|-7/9~~~~~~----------------------------|
|-7(b2)-~~~~~~~--|-----------------|--------------------------------------|
|----------------|-----------------|--------------------------------------|
|----------------|-----------------|--------------------------------------|

	
|---------------------------|-12---15(b2)---15~~~-12~~~~~~----------------|
|-15(br)—15(br)---15(b2)-~~-|---12---------------------------15-12-15~~~--|
|---------------------------|---------------------------------------------|
|---------------------------|---------------------------------------------|
|---------------------------|---------------------------------------------|
|---------------------------|---------------------------------------------|


|---------------------------------|-17(b2)---15171517~~15(b2)-------------|
|-12-14-14/17~~~---14—17~~-14-17~~|---------------------------17-15-17~~~-|
|---------------------------------|---------------------------------------|
|---------------------------------|---------------------------------------|
|---------------------------------|---------------------------------------|
|---------------------------------|---------------------------------------|


|-15-12--------------------------|-12-------------------------------------|
|------15-12-15-12-15(b2)~~~~----|----15-12------------------14~~---------|
|--------------------------------|----------14(br)-12----12—-14~~--12~~---|
|--------------------------------|--------------------14------------------|
|--------------------------------|----------------------------------------|
|--------------------------------|----------------------------------------|


|----------------------|--------------------------------------------------|
|-------14(b)----------|-14(br)-14(br)-14(br)-14(br)----------------------|
|---12-—14(b)--12------|-14(br)-14(br)-14(br)-14(br)—12(b2)-12~~----12----|
|-14-------------14~~~~|------------------------------------------14—-14~~|
|----------------------|--------------------------------------------------|
|----------------------|--------------------------------------------------|


|---------------------------------|------------------|
|---------------------------------|------------------|
|---------------------------------|------------------|
|-12~~~~~-9999—-7777—6666--7777---|-7/9-\-7-\6-\-----|
|---------------------------------|------------------|
|---------------------------------|------------------|

Rhythm A			Rhythm  b
|----------------------|----------------------------|-----------------|
|----------------------|----------------------------|-----------------|
|-7777-7777--6666-6666-|-9999-9999--9/11-1111-11/13-|--Repeat---------|
|-xxxx-xxxx--xxxx-xxxx-|-xxxx-xxxx--x-x---x-x--x--x-|--Rhythm B-------|
|-5555-5555--4444-4444-|-7777-7777--7/9---9-9—-9/11-|-----------------|
|----------------------|----------------------------|-----------------|
	
			
|---------------------|------------|-------------------------------------|
|---------------------|------------|-------------------------------------|
|-7777-7777-6666-6666-|-RHYTHM-B---|-10101010-10101010-10101010-10101010-|
|-xxxx-xxxx-xxxx-xxxx-|--X-2-------|--X-X-X-X--X-X-X-X--X-X-X-X--X-X-X-X-|
|-5555-5555-4444-4444-|------------|-12121212-12121212-12121212-12121212-|
|---------------------|------------|-------------------------------------|

|--------------------------------------|---------------------------------|
|-12121212-12121212-12121212-12121212--|---------------------------------|
|--X-X-X-X--X-X-X-X--X-X-X-X--X-X-X-X--|-7-7-7-7---7--7--7--7------------|
|--9-9-9-9--9-9-9-9—-9-9-9-9--9-9-9-9--|-x-X-X-X---X--X--X--X------------|
|--------------------------------------|-5-5-5-5---5--5--5--5------------|
|--------------------------------------|---------------------------------|

End
|--------------------------|---------------------------------------------|
|--------------------------|---------------------------------------------|
|--/9~~~~~-----------------|------------------------------------1--------|
|----------7(b2)-----5~~~~~|-2-/-4-/-6-/7—7/9\7-\6-\4-/6\4\2----2--------|
|--------------------------|------------------------------------2--------|
|--------------------------|------------------------------------0--------|
Comments