Awkward Dream - A Summer Not Remembered Chords & Tabs

 

A Summer Not Remembered Chords & Tabs

Awkward Dream Chords & Tabs

Version: 1 Type: Tab 0 ratings
1 star 2 stars 3 stars 4 stars 5 stars
comments

A Summer Not Remembered Tab

   
-------------------------------------------------------------------------------
	          A Summer Not Remembered - Awkward Dream
-------------------------------------------------------------------------------

By: m1j0y3korn@aol.com

pm = palm muting .............


Intro
e|----------|
B|----------|
G|-77777777-|
D|----------|
A|----------|
E|----------|

Chorus
e|-----------------------------|
B|-----------------------------|
G|-77777-------99999-----------|
D|-77777-77777-99999-55555-5---|
A|-55555-77777-77777-55555---5-|
E|-------55555-------33333-----|

e|-------------------------------|
B|-------------------------------|
G|-77777-------99999-------------|
D|-77777-77777-99999-555-5-------|
A|-55555-77777-77777-555---5-0---|
E|-------55555-------333-------3-|

Verse
e|-------------------------------------------------------------------------|
B|-------------------------------------------------------------------------|
G|-77777777777777777-66666666666666666-77777777777777777-77777777777777777-|
D|-77777777777777777-77777777777777777-77777777777777777-77777777777777777-|
A|-55555555555555555-00000000000000000-xxxxxxxxxxxxxxxxx-55555555555555555-| x2
E|-------------------------------------77777777777777777-55555555555555555-|
pm  .. .. .. ......   .. .. .. ......   .. .. .. ......   .. .. .. ......

Breakdown
e|------------------------------------------------------------|
B|------------------------------------------------------------|
G|-777777-77777-666666-66--66---777777--------777777---7777-7-|
D|-777777-------777777---77--77-777777-777777-777777-77----7--|
A|-555555-------000000----------xxxxxx--------555555----------| x2
E|------------------------------777777--------555555----------|
[ Tab from: http://www.guitartabs.cc/tabs/a/awkward_dream/a_summer_not_remembered_tab.html ]
Verse
e|-------------------------------------------------------------------------|
B|-------------------------------------------------------------------------|
G|-77777777777777777-66666666666666666-77777777777777777-77777777777777777-|
D|-77777777777777777-77777777777777777-77777777777777777-77777777777777777-|
A|-55555555555555555-00000000000000000-xxxxxxxxxxxxxxxxx-55555555555555555-| x2
E|-------------------------------------77777777777777777-55555555555555555-|
pm  .. .. .. ......   .. .. .. ......   .. .. .. ......   .. .. .. ......

Chorus
e|-----------------------------|
B|-----------------------------|
G|-77777-------99999-----------|
D|-77777-77777-99999-55555-5---|
A|-55555-77777-77777-55555---5-|
E|-------55555-------33333-----|

e|-------------------------------|  |-----|
B|-------------------------------|  |-----|
G|-77777-------99999-------------|  |--7--|
D|-77777-77777-99999-555-5-------|  |--7--|
A|-55555-77777-77777-555---5-0---|  |--5--|
E|-------55555-------333-------3-|  |-----|

Breakdown
|--------------------------------------------------------|
|--------------------------------------------------------|
|-77777777-666666-66--66---777777--------7777777---777-7-|
|----------777777---77--77-777777-777777-7777777-77---7--|
|----------000000----------xxxxxx--------5555555---------|
|--------------------------777777--------5555555---------|

|------------------------------------------------------------|
|------------------------------------------------------------|
|-77777-77777-666666-66--66---777777--------7777777---77777--|
|-77777-------777777---77--77-777777-777777-7777777-77-------|
|-55555-------000000----------xxxxxx--------5555555----------|
|-----------------------------777777--------5555555----------|

Verse (clean)
e|-------------------------------------------------------------------------|
B|-------------------------------------------------------------------------|
G|-77777777777777777-66666666666666666-77777777777777777-77777777777777777-|
D|-77777777777777777-77777777777777777-77777777777777777-77777777777777777-|
A|-55555555555555555-00000000000000000-xxxxxxxxxxxxxxxxx-55555555555555555-| x2
E|-------------------------------------77777777777777777-55555555555555555-|

End On
|-----|
|-----|
|--7--|
|--7--|
|--5--|
|-----|

===============================================================================
Comments