Avril Lavigne - Why Chords & Tabs

 

Why Chords & Tabs

Avril Lavigne Chords & Tabs

Version: 4 Type: Tab 0 ratings
1 star 2 stars 3 stars 4 stars 5 stars
comments

Why Tab

Why-Avril Lavigne
-zenia
You gotta accept this tab!

intro:
figure out the strumming...
|--------------------------------------------------|
|--------------------------------------------------|
|------9-9-9-9-9-------------9-9-9-9-9-------------|
|------9-9-9-9-9--7-7-7-7-7--9-9-9-9-9--7-7-7-7-7--|
|------7-7-7-7-7--7-7-7-7-7--7-7-7-7-7--7-7-7-7-7--|
|-----------------5-5-5-5-5-------------5-5-5-5-5--|

verses 1 and 2
|--------------------------------------------------|
|--------------------------------------------------|
|------9-9-9-9-9-------------9-9-9-9-9--4-4-4-4-4--|
|------9-9-9-9-9--7-7-7-7-7--9-9-9-9-9--4-4-4-4-4--|
|------7-7-7-7-7--7-7-7-7-7--7-7-7-7-7--2-2-2-2-2--|
|-----------------5-5-5-5-5------------------------|

pre-chorus
|------------------------------|
|------------------------------|
|---------x-x-9---------4----4-| 
|--x-x-7--9-9-9--x-x-4--4----4-|
|--7-7-7--7-7-7--4-4-4--2----4-|
|--5-5-5---------2-2-2---------|

|---------------------------------|
|---------------------------------|
|---------x-x-9-------------------|
|--x-x-7--9-9-9--x-x-4-4-4-4-4-4--|
|--7-7-7--7-7-7--4-4-4-4-4-4-4-4--|
|--5-5-5---------2-2-2-2-2-2-2-2--|
[ Tab from: http://www.guitartabs.cc/tabs/a/avril_lavigne/why_tab_ver_4.html ]
chorus
|-------------------------------------------------|
|--------------------------------------2--2-------|
|--9-9-9-9-9-------------x-x-6--x-x-4--2--2--4--4-|
|--9-9-9-9-9--7-7-7-7-7--6-6-6--4-4-4--2--2--4--4-|
|--7-7-7-7-7--7-7-7-7-7--4-4-4--2-2-2--------2--2-|
|-------------5-5-5-5-5---------------------------|

|---------------------------------------------|
|--------------------------------------2-2-2--|
|--9-9-9-9-9-------------x-x-6--x-x-4--2-2-2--|
|--9-9-9-9-9--7-7-7-7-7--6-6-6--4-4-4--2-2-2--|
|--7-7-7-7-7--7-7-7-7-7--4-4-4--2-2-2---------|
|-------------5-5-5-5-5-----------------------|

Are you and me still together...
|------------------------|
|------------------------|
|--6-6-6-6-6-------------|
|--6-6-6-6-6--4-4-4-4-4--|
|--4-4-4-4-4--4-4-4-4-4--|
|-------------2-2-2-2-2--|
You think we can last forever, tell me...
|------------------------|
|------------------------|
|--6-6-6-6-6-------------|
|--6-6-6-6-6--4-4-4-4-4--|
|--4-4-4-4-4--4-4-4-4-4--|
|-------------2-2-2-2-2--|
...............Why?
|-----------------|
|-----------------|
|--------4-4-4----|
|-7-7-7--4-4-4----|
|-7-7-7--2-2-2----| 
|-5-5-5-----------|

(intro)
(verse two same as verse one)

bridge:
|-------------------------------------------------|
|-------------------------------------------------|
|--6--4--6-----6-6-6-6--9-9-9-9-9-9-9-9--4-4-4-4--|
|--6--4--6--7--6-6-6-6--9-9-9-9-9-9-9-9--4-4-4-4--|
|--4--2--4--7--4-4-4-4--7-7-7-7-7-7-7-7--2-2-2-2--|
|-----------5-------------------------------------|

(pre-chorus then chorus)

during the high pitch part, just do the chorus tabs two frets higher....
you just gotta accept this tab!
Comments