Avril Lavigne - Why Chords & Tabs

 

Why Chords & Tabs

Avril Lavigne Chords & Tabs

Version: 2 Type: Tab 0 ratings
1 star 2 stars 3 stars 4 stars 5 stars
comments

Why Tab

WHY
Avril Lavigne

johnsantos_17@yahoo.com

Standard Tuning	(EADGBE)

Intro:

E---0---0--
B---0---0--
G---9---6--play 2x
D---9---7--
A---7---7--
E---0---5--

Verse:
"why? do you always.."

E--0--0--0--0/0--
B--0--0--0--0/0--
G--9--6--9--8/9--play 3x
D--9--7--9--9/9--
A--7--7--7--9/9--
E--0--5--0--7/7--

    "do  you expect me.."

E-0----|-0--0--2-2-2--------------
B-0----|-0--0--4-5-4--------------
G-9----|-2--2--4-4-4--------------
D-9----|-2--2--4-4-4--------------
A-7----|-0-----2-2-2--------------
E-0--4-|----4---------------------

Pre-chorus:
"i can feel.."

E-0--0--0-------|-0--0--2------
B-0--0--0--5\4--|-0--0--2------
G-2--2--2--4\4--|-2--2--2------
D-2--2--2--4\4--|-2--2--2------
A-0--------2\2--|-0-----4------
E----4--2-------|----4--2------

Chorus:
"it's not suppose.."


E-0-0---4--2--0--2/2--
B-0-0---5--4--2--4/5--
G-9-9---4--4--2--4/4--play 2x
D-9-9---6--4--2--4/4--
A-7-6---4--2--0--2/2--
E-0-------------------

"are you & me still together.."
[ Tab from: http://www.guitartabs.cc/tabs/a/avril_lavigne/why_tab_ver_2.html ]
E--4--2--4--2---0/2-
B--5--2--5--2---2/4-
G--4--2--4--2---2/4-hold
D--6--2--6--2---2/4-
A--4--4--4--4---0/2-
E-----2-----2-------

Adlib:

E---0---0--
B---0---0--
G---9---6--play 2x
D---9---7--
A---7---7--
E---0---5--

Bridge:

E-0--0--4--0--|--2--0--2--2\2----
B-2--3--5--3--|--2--1--4--5\4----
G-2--2--4--2--|--2--2--4--4\4----
D-2--0--6--0--|--2--2--4--4\4----
A-0--2--4--0--|--4--3--2--2\2----
E----------0--|------------------

Last Chorus:

E-0-0---4--2--0--2/2--
B-0-0---5--4--2--4/5--
G-9-9---4--4--2--4/4--
D-9-9---6--4--2--4/4--
A-7-6---4--2--0--2/2--
E-0-------------------

E-0-0---4--2--0--2/-4-
B-0-0---5--4--2--4/-6-
G-9-9---4--4--2--4/-6-
D-9-9---6--4--2--4/-6-
A-7-6---4--2--0--2/-4-
E-0-------------------

E------6--4--2--4/4---
B-7-7--7--6--4--6/7---
G-6-6--6--6--4--6/6---
D-4-3--8--6--4--6/6---
A------6--4--2--4/4---
E---------------------

"are you & me.."

E-6--4---6--4---2--4-
B-7--4---7--4---4--6-
G-6--4---6--4---4--6-hold
D-8--4---8--4---4--6-
A-6--6---6--6---2--4-
E----4------4--------

=====w&_17=====
Comments