Avril Lavigne - Who Knows Chords & Tabs

 

Who Knows Chords & Tabs

Avril Lavigne Chords & Tabs

Version: 2 Type: Tab 0 ratings
1 star 2 stars 3 stars 4 stars 5 stars
comments

Who Knows Tab

   
                       *************************
                        Who Knows-Avril Lavigne
                       *************************

Tabbed by:Steven Bryant (elix997)
Email:elix997@hotmail.com
Song:Who Knows
Artist:Avril Lavigne
Album:Under My Skin

Tuning: Standard (EADGBE)

(sorry...when i first made this..the chorus was REALLY screwed...fix time =p)

First Intro (acoustic):

Guitar 2 (acoustic)
    (Em7)     (C)       (G)       (D)
e--------------------------------------0h2--|
B---------3----------1p0-------3------------|
G------0-----0--------------0----0---2------|
D---2-------------2----------------0--------|
A--------------3----------------------------|
E------------------------3------------------|

    (Em7)     (C)       (G)        (D)
e----------------------------------(2)------|
B---------3----------1p0-------3----3-------|
G------0-----0--------------0----0--2-------|
D---2-------------2-----------------0-------|
A--------------3-------------------(0)------|
E------------------------3------------------|


Second Intro (electric):

Guitar 1 (electric)
   (Em7)     (C)          (G)      (D)
e----------------------------------------2h3~-|
B---------3~--------0h1p0--------3~-----------|
G------0----------------------0-------2-------|
D---2------------2------------------0---------|
A-------------3-------------------------------|
E--------------------------3------------------|

   (Em7)     (C)          (G)      (D)
e----------------------------------------2h3~-|
B---------3~--------0h1p0--------3~-----------|
G------0----------------------0-------2-------|
D---2------------2------------------0---------|
A-------------3-------------------------------|
E--------------------------3------------------|


(BIG NOTE:During Electric intro and verse, an acoustic is strumming the Em7  C  G  D pattern)


Verse 1 (listen to CD for rhythm..kinda offbeat fills):

[Guitar 2 (acoustic) is strumming Em7 C G D]
Guitar 1 (electric)
e--(3)~--------------p2-------------------|
B----------------------------5~-----------|
G-----------------------------------------|
D-----------------------------------------|
A-----------------------------------------|
E-----------------------------------------|

e-----------------------------------------|
B--(5)~---------------------h7---h8~------|
G-----------------------------------------|
D-----------------------------------------|
A-----------------------------------------|
E-----------------------------------------|

e-----------------------------------------|
B-------------------------5h7-------------|
G----7~-----5h4~----7~--------------------|
D-----------------------------------------|
A-----------------------------------------|
E-----------------------------------------|

e-----------------------------------------|
B-----------------------------------------|
G----7~-----5h4~----7~---------x-x-x-x----|
D------------------------------x-x-x-x----|
A------------------------------x-x-x-x----|
E------------------------------x-x-x-x----|


Pre Chorus:

I think there's something more...

Guitar 1 (electric):
e----------------------------------------------|
B----------------------------------------------|
G----------------------------------------------|
D-----7-7-7-7-7-7-x-9--10-10-10-10-10-10-10-10-|
A-----7-7-7-7-7-7-x-9--10-10-10-10-10-10-10-10-|
E-----5-5-5-5-5-5-x-7--8--8--8--8--8--8--8--8--|

Guitar 2 (acoustic):
e-----0-0-0-0-0-0---0--0--0--0--0--0--0--0--0--|
B-----1-1-1-1-1-1---1--1--1--1--1--1--1--1--1--|
G-----2-2-2-2-2-2---0--0--0--0--0--0--0--0--0--|
D-----2-2-2-2-2-2---0--2--2--2--2--2--2--2--2--|
A-----0-0-0-0-0-0---2--3--3--3--3--3--3--3--3--|
E----------------------------------------------|


Chorus:

Who Knows what could happen...
[ Tab from: http://www.guitartabs.cc/tabs/a/avril_lavigne/who_knows_tab_ver_2.html ]
Guitar 1 (electric):
e----------------------------------|
B----------------------------------|
G------------------5-5-5-5-5-5-5-5-|
D--5-5-5-5-5-5-5-5-5-5-5-5-5-5-5-5-|  (x2)
A--5-5-5-5-5-5-5-5-3-3-3-3-3-3-3-3-|
E--3-3-3-3-3-3-3-3-----------------|

Guitar 2 (acoustic)
e--3-3-3-3-3-3-3-3-3-3-3-3-3-3-3-3-|
B--3-3-3-3-3-3-3-3-3-3-3-3-3-3-3-3-|
G--0-0-0-0-0-0-0-0-0-0-0-0-0-0-0-0-|
D--0-0-0-0-0-0-0-0-2-2-2-2-2-2-2-2-|  (x2)
A--2-2-2-2-2-2-2-2-3-3-3-3-3-3-3-3-|
E--3-3-3-3-3-3-3-3-----------------|


Chorus ending:

I'm gonna live today like its my last day

Guitar 1 (electric)
e----------------------------------------------|
B----------------------------------------------|
G----------------------------------------------|
D-----7-7-7-7-7-7-x-9--10~---------------------|
A-----7-7-7-7-7-7-x-9--10~---------------------|
E-----5-5-5-5-5-5-x-7--8~----------------------|

Guitar 2 (acoustic):
e-----0-0-0-0-0-0---0--0~~---------------------|
B-----1-1-1-1-1-1---1--1~~---------------------|
G-----2-2-2-2-2-2---0--0~~---------------------|
D-----2-2-2-2-2-2---0--2~~---------------------|
A-----0-0-0-0-0-0---2--3~~---------------------|
E----------------------------------------------|

Post chorus (intro)

Guitar 1 (electric)
   (Em7)     (C)          (G)      (D)
e----------------------------------------2h3~-|
B---------3~--------0h1p0--------3~-----------|
G------0----------------------0-------2-------|
D---2------------2------------------0---------|
A-------------3-------------------------------|
E--------------------------3------------------|

   (Em7)     (C)          (G)      (D)
e----------------------------------------2h3~-|
B---------3~--------0h1p0--------3~-----------|
G------0----------------------0-------2-------|
D---2------------2------------------0---------|
A-------------3-------------------------------|
E--------------------------3------------------|


Verse 2:

[Guitar 2 (acoustic) is strumming Em7 C G D]
Guitar 1 (electric)
e--(3)~--------------p2-------------------|
B----------------------------5~-----------|
G-----------------------------------------|
D-----------------------------------------|
A-----------------------------------------|
E-----------------------------------------|

e-----------------------------------------|
B--(5)~---------------------h7---h8~------|
G-----------------------------------------|
D-----------------------------------------|
A-----------------------------------------|
E-----------------------------------------|

(heavy distortion)
e-----------------------------------------|
B-----------------------------------------|
G-----------------------------------------|
D---x-x-5~--x-x-5~--x-x-5~--x-x-4h5~------|
A---x-x-----x-x-----x-x-----x-x-----------|
E---x-x-----x-x-----x-x-----x-x-----------|

e-----------------------------------------|
B-----------------------------------------|
G-----------------------------------------|
D---x-x-5~--x-x-5~--x-x-5~--x-x--x-x-x-x--|
A---x-x-----x-x-----x-x-----x-x--x-x-x-x--|
E---x-x-----x-x-----x-x-----x-x--x-x-x-x--|


Pre Chorus

Chorus x2

Bridge

"Find yourself"

Acoustic- G    Cadd9     G    Cadd9         (x2)

Electric- G5   C5   G5   C5                 (x2)


Chorus (first line without guitar...only drums. then it does this fill on the
electric [just strums a Cadd9 on acoustic]):

e------------------------------------------|
B------------------------------------------|
G--5-5-5-7-7-7-9-9-9-11-11-11-12-12-12-12--|
D--5-5-5-7-7-7-9-9-9-11-11-11-12-12-12-12--|
A--3-3-3-5-5-5-7-7-7--9--9--9-10-10-10-10--|
E------------------------------------------|

Then just play the chorus a couple times and end on the Chorus Ending
(im gonna live today like its my last day).


Ok thats it..


Questions? Comments?
hit me up
email:elix997@hotmail.com
AIM screenames: stevn53091      elix997

Please Rate!!
Comments