Avril Lavigne - Unwanted Chords & Tabs

 

Unwanted Chords & Tabs

Avril Lavigne Chords & Tabs

Version: 1 Type: Tab 0 ratings
1 star 2 stars 3 stars 4 stars 5 stars
comments

Unwanted Tab

this is my first tab Ok this is correct i just had a prob figuring out the
strumming but the Tab is right ok so dont say it isnt lol ok  its pretty
much just the same thing repeated over and over

tuning:E standard

 ~~=let ring

Heavy distortion
intro
e------------------------------------------------------|
B------------------------------------------------------|  
G------------------------------------------------------|
D-------5-5--7-7---7-7---------5-5--7-7---7-7----------|
A--2-2--3-3--5-5---4-4----2-2--3-3--5-5---4-4------2-2-|
E------------------------------------------------------|

e--------------------------------------------------------|
B--------------------------------------------------------|  
G--------------------------------------------------------|
D-------5-5--7-7---7-7---------5-5--7-7---7-7------------|
A--2-2--3-3--5-5---4-4----2-2--3-3--5-5---4-4------2~~~--|
E--------------------------------------------------------|
[ Tab from: http://www.guitartabs.cc/tabs/a/avril_lavigne/unwanted_tab.html ]
Verse1 (Light distortion) pick this dont strum
e-------------------------------------------------------|
B-------------------------------------------------------|  
G-------------------------------------------------------|
D-------------------------------------------------------|repeat 5x 
A--2-2--3-3--5-5---4-4----2-2--3-3--5-5---4-4------2-2--|
E-------------------------------------------------------|

strum this lightly 
e------------------------------------------------------|
B------------------------------------------------------|  
G------------------------------------------------------|
D-------5-5--7-7---7-7---------5-5--7-7---7-7----------|repeat 7x
A--2-2--3-3--5-5---4-4----2-2--3-3--5-5---4-4------2-2-|
E------------------------------------------------------|

Chorus heavy distortion
e-------------------------------------------------------|
B-------------------------------------------------------|  
G-------------------------------------------------------|
D-------5-5--7-7---7-7---------5-5--7-7---7-7-----------|repeat 6x 
A--2-2--3-3--5-5---4-4----2-2--3-3--5-5---4-4------2-2--|
E-------------------------------------------------------|

for the rest of the verses just repeat the first verse
and for the bridge just repeat the chorus
Comments