Avril Lavigne - Unwanted Chords & Tabs

 

Unwanted Chords & Tabs

Avril Lavigne Chords & Tabs

Version: 2 Type: Bass Tab 0 ratings
1 star 2 stars 3 stars 4 stars 5 stars
comments

Unwanted Bass Tab

   
Avril Lavigne - Unwanted
~~~~~~~~~~~~~~~~~~~~~~~~
Tabbed by Brent (mo_munky@yahoo.com)
Found at Anything But Ordinary (http://www.comeunglued.com/avril/)
Tuning - Standard tuning EADG


intro
G-------------------------      G-----
D-------------------------      D-----
A-------------------------      A-----
E--0---0---0--8/10--10-10-      E---0-

verse one
G----------------------------------------------------------------------
D----------------------------------------------------------------------
A----------------------------------------------------------------------
E------------5-5----0------------0----------0-------0----------55555---

chorus 1
riff a
G---------------------------------------   X 2
D---------------------------------------
A-----------3--333------5--555----------
E--0--000-------------------------5-555-

riff b
G------------------------------------  once
D------------------------------------
A-----------3-334----5--554----------
E--0-000-----------------------5-554-

Then
G---------------------------------------
D---------------------------------------
A-----------------2--4---5-5-5----------
E--0--2--4----5------------------5-5-5--
[ Tab from: http://www.guitartabs.cc/tabs/a/avril_lavigne/unwanted_btab_ver_2.html ]
G------------------------ X 4
D------------------------
A------------------------
E--0--0-0--8/10--10--10--
	
Verse 2
G-------------------------------------------------
D-------------------------------------------------
A-----------------------------------3----5--------
E--0------0--------5-5-----0-----------------5----

G---------------------------------------------
D---------------------------------------------
A----------3-----5----------------3-----5-----
E--0---------------5--------0--------------5--

G------------------------------------------
D------------------------------------------
A-------3-----5-5-5-5----------------------
E--0---------------------5-5-5-5--4-/11\-4-

Chorus 2
riff a
G---------------------------------------   X 2
D---------------------------------------
A-----------3--333------5--555----------
E--0--000-------------------------5-555-

riff b
G------------------------------------   once
D------------------------------------
A-----------3-334----5--554----------			
E--0-000-----------------------5-554-			
			
			
Then
G---------------------------------------  once
D---------------------------------------   then
A-----------------2--4---5-5-5----------
E--0--2--4----5------------------5-5-5--

G------------------------ X 11
D------------------------
A------------------------
E--0--0-0--8/10--10--10--

then
G-----------------------------------------------
D-----------------------------------------------
A-----------------------------------------------
E--8h10--10-10------8h10---10-10------10-10-----

Rest of the song is just basically a chorus so use 
the chorus lines you can tell when to switch lines. 
That's the whole song.....
Comments