Avril Lavigne - Too Much To Ask Chords & Tabs

 

Too Much To Ask Chords & Tabs

Avril Lavigne Chords & Tabs

Version: 1 Type: Bass Tab 0 ratings
1 star 2 stars 3 stars 4 stars 5 stars
comments

Too Much To Ask Bass Tab

   
Avril Lavigne - Too Much To Ask
Submitted By: punx_not_dead


Verse:
G|--------------------------|
D|--------------0-2-0-0-2-0-|
A|-------------3-----3------|
E|-3-2-0--3-2-0-------------|
[ Tab from: http://www.guitartabs.cc/tabs/a/avril_lavigne/too_much_to_ask_btab.html ]
Chorus:			2x
G|-------------------------------------------|-------------------------|
D|-------------------------------------0-0-0-|-------------------------|
A|------2-2-2-3-3-3-3-5-----2-2-2-3-3-3------|-4-4-3-3-4-3-3-3-5-------|
E|-3-3-3---------------3-3-3-----------------|------------------3--2-0-|

Bridge:
G|-----------------------------|
D|-----------------------------|
A|-----------------------------|
E|-0-0-0-0-0-0-1-1-1-1-3-3-3-3-|
Comments