Avril Lavigne - Tomorrow Chords & Tabs

 

Tomorrow Chords & Tabs

Avril Lavigne Chords & Tabs

Version: 3 Type: Tab 0 ratings
1 star 2 stars 3 stars 4 stars 5 stars
comments

Tomorrow Tab

   
-------------------------------------------------------------------------------
Tomorrow- Try to shut me up tour [live in Buffalo] - Avril Lavigne
-------------------------------------------------------------------------------
Tabbed by: Veveboi
Email: veveboi@gmail.com
Please rate this and add some comments!

Tuning: Standard EADGHe
Note: These riffs and chords are played by Evan T.

VERSE:

           And I wanna believe you,...


e|---0~~--0-----0-0----0-0-0--0-0-0-0---0--0--0-0--0-0-0--0-0-0-0--------------|x4
B|---0h2--2p0---0-0----0-0-0--0-0-0-0---3--3--3-3--3-3-3--3-3-3-3--------------|x4
G|---2~~--2-----2-2----2-2-2--2-2-2-2---2--2--2-2--2-2-2--2-2-2-2--------------|x4
D|---2~~--2-----2-2----2-2-2--2-2-2-2---0--0--0-0--0-0-0--0-0-0-0--------------|x4
A|---0~~--0-----0-0----0-0-0--0-0-0-0---x--x--x-x--x-x-x--x-x-x-x--------------|x4
E|---x----x-----x-x----2-2-2--2-2-2-2---x--x--x-x--x-x-x--x-x-x-x--------------|x4

CHORUS:

    I don't know how I'll feel..

e|--x--x--x-x-x-x-x--x-x-x-x---0--0--0-0-0-0-0--0-0-0-0----------------------|
B|--0--0--0-0-0-0-0--0-0-0-0---0--0--0-0-0-0-0--0-0-0-0----------------------|
G|--2--2--2-2-2-2-2--2-2-2-2---1--1--1-1-1-1-1--1-1-1-1----------------------|
D|--2--2--2-2-2-2-2--2-2-2-2---2--2--2-2-2-2-2--2-2-2-2----------------------|
A|--0--0--0-0-0-0-0--0-0-0-0---2--2--2-2-2-2-2--2-2-2-2----------------------|
E|--2--2--2-2-2-2-2--2-2-2-2---0--0--0-0-0-0-0--0-0-0-0----------------------|

continuing:

tomorrow...

e|--0--0--0-0-0-0-0--0-0-0-0---4--4--4-4-4-4-4--4-4-4-4------------------------|x2
B|--3--3--3-3-3-3-3--3-3-3-3---5--5--5-5-5-5-5--5-5-5-5------------------------|x2
G|--2--2--2-2-2-2-2--2-2-2-2---6--6--6-6-6-6-6--6-6-6-6------------------------|x2
D|--0--0--0-0-0-0-0--0-0-0-0---6--6--6-6-6-6-6--6-6-6-6------------------------|x2
A|--x--x--x-x-x-x-x--x-x-x-x---4--4--4-4-4-4-4--4-4-4-4------------------------|x2
E|--x--x--x-x-x-x-x--x-x-x-x---x--x--x-x-x-x-x--x-x-x-x------------------------|x2


VERSE


CHORUS


VERSE 2:
Hey yeah yeah,...
[ Tab from: http://www.guitartabs.cc/tabs/a/avril_lavigne/tomorrow_tab_ver_3.html ]
e|---0~~--0-----0-0----0-0-0--0-0-0-0---0--0--0-0--0-0----0-0-0-0--------------|x4
B|---0h2--2p0---0-0----0-0-0--0-0-0-0---3--3--3-3--3-3----3-3-3-3--------------|x4
G|---2~~--2-----2-2----2-2-2--2-2-2-2---2--2--2-2--2-2----2-2-2-2--------------|x4
D|---2~~--2-----2-2----2-2-2--2-2-2-2---0--0--0-0--0-0----0-0-0-0--------------|x4
A|---0~~--0-----0-0----0-0-0--0-0-0-0---x--x--x-x--x-x-4--x-x-x-x--------------|x4
E|---x----x-----x-x----2-2-2--2-2-2-2---x--x--x-x--x-x----x-x-x-x--------------|x4

VERSE: -stringing  untill she she starts singing 'not today, today...'. When 'not today, today
starts, play normal chords.

e|-----------0--------------0-----------0------------------------------------|
B|---------0--------------0---------3-----3---3------------------------------|
G|-------2--------------2---------2---2-----2--------------------------------|
D|-----2------------------------0--------------------------------------------|
A|---0-----------------------------------------------------------------------|
E|----------------2----------------------------------------------------------|

Not today, today, today, today, today...

Tomorrow it may change

e|---0~~--0-----0-0----0-0-0--0-0-0-0---0--0--0-0--0-0----0-0-0-0--------------|x1
B|---0h2--2p0---0-0----0-0-0--0-0-0-0---3--3--3-3--3-3----3-3-3-3--------------|x1
G|---2~~--2-----2-2----2-2-2--2-2-2-2---2--2--2-2--2-2----2-2-2-2--------------|x1
D|---2~~--2-----2-2----2-2-2--2-2-2-2---0--0--0-0--0-0----0-0-0-0--------------|x1
A|---0~~--0-----0-0----0-0-0--0-0-0-0---x--x--x-x--x-x-4--x-x-x-x--------------|x1
E|---x----x-----x-x----2-2-2--2-2-2-2---x--x--x-x--x-x----x-x-x-x--------------|x1

Tomorrow it may change...
e|---0~~--0-----0-0----0-0-0--0-0-0-0---0--0--0-0--0-0----0-0-0-0--------------|x3
B|---0h2--2p0---0-0----0-0-0--0-0-0-0---3--3--3-3--3-3----3-3-3-3--------------|x3
G|---2~~--2-----2-2----2-2-2--2-2-2-2---2--2--2-2--2-2----2-2-2-2--------------|x3
D|---2~~--2-----2-2----2-2-2--2-2-2-2---0--0--0-0--0-0----0-0-0-0--------------|x3
A|---0~~--0-----0-0----0-0-0--0-0-0-0---x--x--x-x--x-x-4--x-x-x-x--------------|x3
E|---x----x-----x-x----2-2-2--2-2-2-2---x--x--x-x--x-x----x-x-x-x--------------|x3

| /  slide up
| \  slide down
| h  hammer-on
| p  pull-off
| ~  vibrato/ in this song itīs "let ring"
| +  harmonic
| x  Mute note
===============================================================================
Comments