Avril Lavigne - Tomorrow Chords & Tabs

 

Tomorrow Chords & Tabs

Avril Lavigne Chords & Tabs

Version: 1 Type: Tab 0 ratings
1 star 2 stars 3 stars 4 stars 5 stars
comments

Tomorrow Tab

Song: Tomorrow
Artist: Avril Lavigne
Album: Let Go

*CAPO ALL GUITARS ON THE 2nd FRET*


Verse
F#--3--3--3-3-3-3--3-3-3--3--3--3-3--3-3--3--3-3-3---------
C#--3--3--3-3-3-3--3-3-3--1--1--1-1--1-1--1--1-1-1---------
A---0--0--0-0-0-0--0-0-0--0--0--0-0--0-0--0--0-0-0---------
E---0--0--0-0-2-2--2-2-2--2--2--2-2--2-2--2--2-2-2---------
B---2--2--2-2-2-2--2-2-2--3--3--3-3--3-3--3--3-3-3---------
F#--3--3--3-3-0-0--0-0-0-----------------------------------

Chorus
F#--0--0-0-0--0-0--0-0-0-0--2--2-2-2--2-2--2-2-2-2---------
C#--0--0-0-0--0-0--0-0-0-0--3--3-3-3--3-3--3-3-3-3---------
A---0--0-0-0--0-0--0-0-0-0--4--4-4-4--4-4--4-4-4-4---------
E---2--2-2-2--2-2--2-2-2-2--4--4-4-4--4-4--4-4-4-4---------
B---2--2-2-2--2-2--2-2-2-2--2--2-2-2--2-2--2-2-2-2---------
F#--0--0-0-0--0-0--0-0-0-0--2--2-2-2--2-2--2-2-2-2---------
[ Tab from: http://www.guitartabs.cc/tabs/a/avril_lavigne/tomorrow_tab.html ]
(continued)
F#--3--3-3-3--3-3--3-3-3-3--2--2-2-2--2-2--2-2-2-2---------
C#--3--3-3-3--3-3--3-3-3-3--3--3-3-3--3-3--3-3-3-3---------
A---0--0-0-0--0-0--0-0-0-0--4--4-4-4--4-4--4-4-4-4---------
E---0--0-0-0--0-0--0-0-0-0--4--4-4-4--4-4--4-4-4-4---------
B---2--2-2-2--2-2--2-2-2-2--2--2-2-2--2-2--2-2-2-2---------
F#--3--3-3-3--3-3--3-3-3-3--2--2-2-2--2-2--2-2-2-2---------

Riff 
F#---------------------------------------------------------
C#---------------------------------------------------------
A---------2-0---0-------2-0---0-------2-0---0------2-0---0-
E-----0-------0-----0-------0-----0-------0-----0------0---
B----------------------------------------------------------
F#--3---3---------3---3---------0---0---------0---0--------

(continued)
F#---------------------------------------------------------
C#---------------------------------------------------------
A---------2-0---0-------2-0---0-------2-0---0------2-0---0-
E-----0-------0-----0-------0-----0-------0-----0------0---
B----3--3----------3--3----------2--2---------2---2--------
F#---------------------------------------------------------

Fill
e-----------12-------12-------12-------12-------12---------
B-----12-------12-------12-------12-------12-------12------
G--14----14-------14-------14-------14-------14-------14---
D----------------------------------------------------------
A----------------------------------------------------------
E----------------------------------------------------------


Verse
Chorus
Verse, Riff
Chorus
Verse
Verse, Fill
Verse
Verse, Riff
Comments