Avril Lavigne - Things Ill Never Say Chords & Tabs

 

Things Ill Never Say Chords & Tabs

Avril Lavigne Chords & Tabs

Version: 4 Type: Tab 0 ratings
1 star 2 stars 3 stars 4 stars 5 stars
comments

Things Ill Never Say Tab

Tabbed by:Jessica or the jess
Email:sk8nthrash2005@cs.com or guitarjunky7272@UG.com

Tuning:standard

into:
e|---------------------------------------------------------------------------|
B|---------------------------------------------------------------------------|
G|-------7-7-7-7-7-7-7-7-----------------------------------------------------|
D|-------7-7-7-7-7-7-7-7---7-7-7-7-7-7-7-7-----9-9-9-9-9-9-9-9---------------|
A|-------5-5-5-5-5-5-5-5---7-7-7-7-7-7-7-7-----9-9-9-9-9-9-9-9---------------|
E|-------------------------5-5-5-5-5-5-5-5-----7-7-7-7-7-7-7-7---------------|
[ Tab from: http://www.guitartabs.cc/tabs/a/avril_lavigne/things_ill_never_say_tab_ver_4.html ]
e|---------------------------------------------------------------------------|
B|---------------------------------------------------------------------------|
G|-------------------------7-7-7-7-7-7-7-7-----------------------------------|
D|------5-5-5-5-5-5-5-5----7-7-7-7-7-7-7-7--7-7-7-7-7-7-7-7--9-9-9-9-9-9-9-9-|
A|------5-5-5-5-5-5-5-5----5-5-5-5-5-5-5-5--7-7-7-7-7-7-7-7--9-9-9-9-9-9-9-9-|
E|------3-3-3-3-3-3-3-3---------------------5-5-5-5-5-5-5-5--7-7-7-7-7-7-7-7-|
la dee da da la dee da da da la dee da da la dee da da da da da da da da da
e|---------------------------------------------------------------------------|
B|---------------------------------------------------------------------------|
G|-----------------------7-7-7-7-7-------------------------------------------|
D|---5-5-5-5-5-5-5-5-----7-7-7-7-7---7-7-7-7-7--9-9-9-9-9--5-5-5-5-5---------|
A|---5-5-5-5-5-5-5-5-----5-5-5-5-5---7-7-7-7-7--9-9-9-9-9--5-5-5-5-5---------|
E|---3-3-3-3-3-3-3-3-----------------5-5-5-5-5--7-7-7-7-7--3-3-3-3-3---------|
da da da da da........  I'm tugging at my hair I'm pulling at my clothes i'm trying to 
my cool i know it shows.......
e|----------------------------------------------------------------------------|
B|----------------------------------------------------------------------------|
G|-----7-7-7-7-7--------------------------------------------------------------|
D|-----7-7-7-7-7--7-7-7-7-7---9-9-9-9-9--5-5-5-5-5----2-2-5-5-2-2-5-5-5-------|
A|-----5-5-5-5-5--7-7-7-7-7---9-9-9-9-9--5-5-5-5-5----2-2-5-5-2-2-5-5-5-------|
E|----------------5-5-5-5-5---7-7-7-7-7--3-3-3-3-3--------3-3-----3-3-3-------|
i'm staring at my feet my cheeks are turning red i'm searching for the words inside my 
i'm feeling nervous trying to be so perfect cause i know your worth it your worth it
chorus:
e|---------------------------------------------------------------------------|
B|---------------------------------------------------------------------------|
G|---7-7-7-7-7-7-7-7---------------------------------------------------------|
D|---7-7-7-7-7-7-7-7--7-7-7-7-7-7-7-7--9-9-9-9-9-9-9-9--5-5-5-5-5-5-5-5------|
A|---5-5-5-5-5-5-5-5--7-7-7-7-7-7-7-7--9-9-9-9-9-9-9-9--5-5-5-5-5-5-5-5------|
E|--------------------5-5-5-5-5-5-5-5--7-7-7-7-7-7-7-7--3-3-3-3-3-3-3-3------|
 if i can say what i want to say......i'd say i want to blow you away be with you every 
am i squeezing you to tight? if i can say what i want to see i wanna see you go down on 
knee marry me today guess im wishing my life away...with these things ill never say...


after that you play the chorus agian then you play the same pogression for the first 
on the second verse and so on... listen to how she does it on her dvd or play along with 
let go cd on song #9 thats things ill never say........have fun and dont do anything stupid LOl!!!!
Comments