Avril Lavigne - Things Ill Never Say Chords & Tabs

 

Things Ill Never Say Chords & Tabs

Avril Lavigne Chords & Tabs

Version: 1 Type: Bass Tab 0 ratings
1 star 2 stars 3 stars 4 stars 5 stars
comments

Things Ill Never Say Bass Tab

Avril Lavigne - Things I'll Never Say
Submitted By: punx_not_dead


Intro
G-------------------------------------------------------------------------------------|
D-0--0-0------------------------------------------------------------------------------|
A-----------0--0-0---2--2-2-----------------------------------------------------------|
E-----------------------------------3--3-3--------------------------------------------|

Verse
G-----------------------------------------------||------------------------------------|
D----------------------0--0-0-------------------||------------------------------------|
A-2--2-2----------------------0--0-0------------||-----0>>----------------------------|
E------------3--3-3-----------------------------||------------------------------------|
[ Tab from: http://www.guitartabs.cc/tabs/a/avril_lavigne/things_ill_never_say_btab.html ]
Chorus
G-------------------------------------------||-----------||---------------------------|
D-0-0--0-0------------------------------------||---2>------||----0>-------------------|
A---------0-0--0-0---2-2--2-2------------------||------3>---||------------------------|
E------------------------------3-3--3-3------||-----------||--------------------------|

Bass Solo
G-------------------------------------------------------------------------------------|
D-0-0---000---------------------------------------------------------------------------|
A--------------0-0---000----2-2---222-------------------------------------------------|
E---------------------------------------------3-3---333-------------------------------|

Refrain1
G-------------------------------------------------------------------------------------|
D-------------------------------------------------------------------------------------|
A-0>>----14>>----0>>----12>>----0>>----10>>-------------------------------------------|
E-------------------------------------------------------------------------------------|

Refrain2
G-------------------------------------------------------------------------------------|
D-------0-----------------------------------------------------------------------------|
A-2-------0-0-0-0-0-0-0-0-0-0-0-0-0-0-0-0---------------------------------------------|
E-----3-------------------------------------------------------------------------------|
Comments