Avril Lavigne - Take Me Away Chords & Tabs

 

Take Me Away Chords & Tabs

Avril Lavigne Chords & Tabs

Version: 3 Type: Tab 0 ratings
1 star 2 stars 3 stars 4 stars 5 stars
comments

Take Me Away Tab

-----------------------------------------------------------------------------
			Take Me Away - Avril Lavigne
-----------------------------------------------------------------------------
Tabbed by:Kalen Vincent
Email:m4r13_1510@hotmail.com

Tuning:Standard
[ Tab from: http://www.guitartabs.cc/tabs/a/avril_lavigne/take_me_away_tab_ver_3.html ]
(Clean)
e|-----------------------------------------------------------------------|
B|-----------------------------------------------------------------------|
G|-------------------------0---------------------------------------------|
D|-----5-2-0-----4-2-0---2---2-0---5---4---------------------------------|
A|---2---------0-------0---------3---------------------------------------|
E|-2---------2-----------------------0-----------------------------------|

Im 99% sure thats right, but you need to find the timing yourself
PEACE
Comments