Avril Lavigne - Sk8er Boi Chords & Tabs

 

Sk8er Boi Chords & Tabs

Avril Lavigne Chords & Tabs

Version: 9 Type: Tab 0 ratings
1 star 2 stars 3 stars 4 stars 5 stars
comments

Sk8er Boi Tab

-------------------------------------------------------------------------------
			     Sk8er Boi - Avril Lavigne
-------------------------------------------------------------------------------
Album: Let Go
Tabbed by: Amy
Tuning: standard

|o              		pm.= plam mute
|o = repeat
666
The only part I'm not too sure about is Guitar 2 for the intro, it might be a bit higher,
but its the closest I could find. Not her's or the best song, but here it is anyway. 

Intro: (Guitar 1)
e|----------------|----------------|----------------|-----------------|
B|----------------|----------------|----------------|-----------------|
G|-7-(x8)---------|----------------|----------------|-----------------|  x2
D|-7--------------|-7-(x8)---------|-9-(x8)---------|-8-(x4)--7-(x4)--|
A|-5--------------|-7--------------|-9--------------|-8-------7-------|
E|----------------|-5--------------|-7--------------|-6-------5-------|
      
       (Guitar 2- same time)
e|----------------|----------------|----------------|----------------|
B|----------------|----------------|----------------|----------------|
G|----9b11r9------|----9b11r9------|----9b11r9------|----9b11r9-9----|  x2
D|----------------|----------------|----------------|----------------|
A|----------------|----------------|----------------|----------------|
E|----------------|----------------|----------------|----------------|

Verse: (played softer, sounds better pm. )
e|----------------|----------------|----------------|----------------|
B|----------------|----------------|----------------|----------------|
G|o-7-(x8)--------|----------------|----------------|----------------|
D|o-7-------------|-7-(x8)---------|-9-(x8)---------|-8-(x8)---------|
A|--5-------------|-7--------------|-9--------------|-6--------------|
E|----------------|-5--------------|-7--------------|-6--------------|

e|----------------|----------------|----------------|----------------|
B|----------------|----------------|----------------|----------------|
G|-7-(x8)---------|----------------|----------------|---------------o|
D|-7--------------|-7-(x8)---------|-9-(x8)---------|-10-(x8)-------o|
A|-5--------------|-7--------------|-9--------------|-10-------------|
E|----------------|-5--------------|-7--------------|--8-------------|

Chorus:
e|----------------|----------------|----------------|----------------|
B|----------------|----------------|----------------|----------------|
G|----------------|-5-(x8)---------|-3-(x8)---------|-2-(x8)---------| x2
D|-3-(x8)---------|-5--------------|-3--------------|-2--------------|
A|-3--------------|-3--------------|-1--------------|-0--------------|
E|-1--------------|----------------|----------------|----------------|
[ Tab from: http://www.guitartabs.cc/tabs/a/avril_lavigne/sk8er_boi_tab_ver_9.html ]
Bridge:
e|----------------|----------------|----------------|----------------|
B|----------------|----------------|----------------|----------------|
G|-7-(x16)--------|----------------|----------------|----------------|
D|-7--------------|----------------|-3-(x16)--------|----------------|
A|-5--------------|----------------|-3--------------|----------------|
E|----------------|----------------|-1--------------|----------------|

e|----------------|----------------|----------------|-----------------|
B|----------------|----------------|----------------|-----------------|
G|-5-(x16)--------|----------------|-3-(x8)---------|-6-(x8)----------|  x2
D|-5--------------|----------------|-3--------------|-6---------------|
A|-3--------------|----------------|-1--------------|-4---------------|
E|----------------|----------------|----------------|-----------------|


It goes:
Intro: Guitar 1 and 2 x2
Verse x2
Chorus x2
Verse x2
Chorus x2
Intro: Guitar 1 and 2 x2 - except the last bar for Guitar 1 which is usually
e|-----------------|
B|-----------------|
G|-----------------|  
D|-8-(x8)--7-(x8)--|
A|-8-------7-------|
E|-6-------5-------|

But you play it as:
e|-----------------|
B|-----------------|
G|--8--8--8--8-----|  
D|--8--8--8--8-----|
A|--6--6--6--6-----|
E|-----------------|

Bridge
Verse
Chorus till end

Lyrics:
He's was a boy,
She's was a a girl,
cannot make it any more obvious,
He was a punk,
she did ballet,
what more can i say.

He wanted her, 
She'd never tell secretly she wanted him as well, 
But all of her friends,
Stuck up their nose, 
They had a problem with his baggy clothes. 

He was a skater boy,
She said see you later boy
He wasn't good enough for her,
She had a pretty face
But her head was up in space
She needed to come back down to earth. 

5 years from now,
She sits at home,
Feeding the baby she's alone,
She turns on TV,
Guess who she sees, 
Skater boy rockin up MTV!!,
She calls up her friends,
They already know,
And they've all got
Tickets to see his show,
She tags along, 
Stands in the crowd, 
Looks up at the man that she turned down.

He was a skater boy
She said see you later boy
He wasn't good enough for her, 
Now he's a super star 
Slamming on his guitar
Does your pretty face see what he's worth?

He was a skater boy,
She said see you later boy,
He wasn't good enough for her,
Now he's a super star ,
Slamming on his guitar ,
Does your pretty face see what he's worth?
(music)
Sorry girl but you missed out, 
Well tough luck that boy's mine now, 
We are more than just good friends,
This is how the story ends,
Too bad that you couldn't see, 
See the man that boy could be,
There is more than meets the eye,
I see the soul that is inside.

He's just a boy, 
And I'm just a girl,
Can I make it any more obvious,
We are in love,
Haven't you heard?
How we rock each others world (x2)

I'm with the skater boy, 
I said see you later boy, 
I'll be back stage after the show, 
I'll be at the studio, 
Singing the song we wrote, 
About a girl you used to know.
 
===============================================================================
Comments