Avril Lavigne - Sk8er Boi Chords & Tabs

 

Sk8er Boi Chords & Tabs

Avril Lavigne Chords & Tabs

Version: 10 Type: Tab 0 ratings
1 star 2 stars 3 stars 4 stars 5 stars
comments

Sk8er Boi Tab

hey peoples this is the first tab i have ever
submited so i hope u's like it!

standard tuning.
 
the first intro bit goes like this its played 
over the verse chords
e|----------------------------------------
b|--7----5----7----5----7----5----7----5--
g|--------------------------------------7-    
d|----------------------------------------
a|----------------------------------------
e|----------------------------------------
[ Tab from: http://www.guitartabs.cc/tabs/a/avril_lavigne/sk8er_boi_tab_ver_10.html ]
the verses go like this
e|----------------------------------------
b|----------------------------------------
g|--7--------------7----------------------
d|--7--7--9--8--7--7--7--9--10------------
a|--5--7--9--8--7--5--7--9--10------------
e|-----5--7--6--5-----5--7--8-------------

the chorous is
e|----------------------------------------
b|----------------------------------------
g|----------------------------------------
d|--3--10--8--7---------------------------   x2   
a|--3--10--8--7---------------------------
e|--1--8---6--5---------------------------


then the verses again and then the little solo 
doobie is
e|----------------------------------------
b|--10--8--10--8--10--8-------------------
g|----------------------------------------
d|-----------------------11---------------
a|-----------------------11---------------
e|-----------------------9----------------

then its just back to the chords again and yeah 
its a pretty easy song so have fun!!!!!!


        PEACE
Comments