Avril Lavigne - Sk8er Boi Chords & Tabs

 

Sk8er Boi Chords & Tabs

Avril Lavigne Chords & Tabs

Version: 7 Type: Bass Tab 0 ratings
1 star 2 stars 3 stars 4 stars 5 stars
comments

Sk8er Boi Bass Tab

   
Normal tunning (G,D,A,E)

INTRO
[ Tab from: http://www.guitartabs.cc/tabs/a/avril_lavigne/sk8er_boi_btab_ver_7.html ]
E|-----------------------------------------------------|
A|-0-0-0-0-0-0-0-0-------------------------------------|
D|-------------------0-0-0-0-0-0----------------0-0-0--|
G|----------------------------------9-9-9-8-8-8--------|

VERSE

E|-----------------------------------------------|
A|-0-0-0-0-0-0-0-0-------------------------------|
D|-------------------0-0-0-0-0-0-----------------|
G|----------------------------------9-9-9-9-9-9--|

CHORUS IS SAME AS INTRO

EASY TO LEARN AND IMPROVISE
Comments