Avril Lavigne - Sk8er Boi Chords & Tabs

 

Sk8er Boi Chords & Tabs

Avril Lavigne Chords & Tabs

Version: 6 Type: Bass Tab 0 ratings
1 star 2 stars 3 stars 4 stars 5 stars
comments

Sk8er Boi Bass Tab

   
Song: Sk8tr Boi
Artist: Avril Lavigne
Album: Let it go
Tabbed by: Skitty Dutrisac (cowboys_no@hotmail.com)

Gimme a shout if it doesn't seem right...


-=-=-=-=-=-=-=-=-=-=-=-=-=-=-=-=-=-=-=-=-=-=-=-=-=-=-=-=-


Intro: Repeat X 2

G---------------------------------------------|
D-00000000------------------------------------|
A----------00000000-22222222-11111111-00000000|
E---------------------------------------------|


Verse 1 & 2: Repeat 2X

G------------------------------------|
D-00000000---------------------------|
A----------00000000-22222222-11111111|
E------------------------------------|

G------------------------------------|
D-00000000---------------------------|
A----------00000000-22222222-33333333|
E------------------------------------|

Chorus:

Repeat 2X
G------------------------------------|
D------------------------------------|
A----------33333333-11111111-00000000|
E-11111111---------------------------|

Chorus Outtro:

G---------|
D---------|
A-11111111|
E---------|

"Solo":

G------------------------------------|
D------------------------------------|     (^ Accent)
A----------33333333-11111111-4-4-4-4-|
E-11111111---------------------------|
                             ^ ^ ^ ^
G------------------------------------|
D------------------------------------|
A----------33333333-11111111-4-4-4-0-|
E-11111111---------------------------|
                             ^ ^ ^ ^

"Sorry girl...":
[ Tab from: http://www.guitartabs.cc/tabs/a/avril_lavigne/sk8er_boi_btab_ver_6.html ]
G---------------------------------------------|
D-00000000------------------------------------|
A-------------------33333333-33333333-11111111|
E----------11111111---------------------------|

G---------------------------------------------|
D----------00000000-00000000------------------|
A-00000000----------------------------33333333|
E----------------------------11111111---------|

G------------------------------------|
D----------------------------00000000|
A-33333333-11111111-00000000---------|
E------------------------------------|

"He's just a...":

G-----------------------------------------|
D-0-00----------------0-00----------------|
A------0-00-2-22-1-11------0-00-2-22-3-33-|
E-----------------------------------------|

NewChorus:

G---------------------------------------------|
D---------------------------------------------|
A----------33333333-11111111-00000000---------|
E-11111111----------------------------11111111|

G------------------------------------|
D------------------------------------|
A----------33333333-11111111-00000000|
E-11111111---------------------------|

G---------------------------------------------|
D---------------------------------------------|
A----------33333333-11111111-00000000---------|
E-11111111----------------------------11111111|

G---------------------------------------------|
D---------------------------------------------|
A----------33333333-11111111-00000000-11111111|
E-11111111------------------------------------|


Intro
Verse
Chorus
Chorus Outtro
Verse
Chorus
Chorus
Chorus Outtro
"Solo"
"Sorry Girl..."
"He's just a..."
NewChorus
Comments