Avril Lavigne - Sk8er Boi Chords & Tabs

 

Sk8er Boi Chords & Tabs

Avril Lavigne Chords & Tabs

Version: 5 Type: Bass Tab 0 ratings
1 star 2 stars 3 stars 4 stars 5 stars
comments

Sk8er Boi Bass Tab

SONG: Sk8tr Boi
ARTIST: Avril Lavigne
ALBUM: Let Go (2002)
TAB: Mikey (msabell@mbox.com.au)

TUNING: Standard (EADG)

NOTES: Firstly this is the first bass tab I've written out like this, it might be a bit
complicated but the 1.'s and 2.'s in each part (the BRIDGE pt 2 for example) show each
run-through of that part of the song. Does that make sense?

INTRO
|-----------------|-----------------|-----------------|-----------------|
|-----------------|-----------------|-----------------|-----------------|
|-5-5-5-5-5-5-5-5-|-0-0-0-0-0-0-0-0-|-2-2-2-2-2-2-2-2-|-1-1-1-1-0-0-0-0-|
|-----------------|-----------------|-----------------|-----------------|

|-----------------|-----------------|-----------------|-----------------|
|-----------------|-----------------|-----------------|-----------------|
|-5-5-5-5-5-5-5-5-|-0-0-0-0-0-0-0-0-|-2-2-2-2-2-2-2-2-|-1-1-1-1-0-0-0-0-|
|-----------------|-----------------|-----------------|-----------------|


VERSE 1
|-----------------|-----------------|-----------------|-----------------|
|-----------------|-----------------|-----------------|-----------------|
|-----------------|-----------------|-----------------|-----------------|
|-----------------|-----------------|-----------------|-----------------|
          1. He was a boy ..
          2. He wanted her ..

|-----------------|-----------------|-----------------|-----------------|
|-----------------|-----------------|-----------------|-----------------|
|-----------------|-----------------|-----------------|-----------------|
|-----------------|-----------------|-----------------|-----------------|
          1. He was a punk ..
          2. All of her friends ..
          

CHORUS 1
|-----------------|-----------------|-----------------|-----------------|
|-----------------|-----------------|-----------------|-----------------|
|-----------------|-3-3-3-3-3-3-3-3-|-1-1-1-1-1-1-1-1-|-0-0-0-0-0-0-0-0-|
|-1-1-1-1-1-1-1-1-|-----------------|-----------------|-----------------|
          1. He was a skater boy ..

|----------------|-----------------|-----------------|-----------------|------------------------------|
|----------------|-----------------|-----------------|-----------------|------------------------------|
|----------------|-3-3-3-3-3-3-3-3-|-1-1-1-1-1-1-1-1-|-0-0-0-0-0-0-0-0-|-1-1-1-1-1-1-1-1-1-1-1-1-1-1-1|
|1-1-1-1-1-1-1-1-|-----------------|-----------------|-----------------|------------------------------|
          1. She had a pretty face ..                                  .. earth


VERSE 2
|-----------------|-----------------|-----------------|-----------------|
|-----------------|-----------------|-----------------|-----------------|
|-5-5-5-5-5-5-5-5-|-0-0-0-0-0-0-0-0-|-2-2-2-2-2-2-2-2-|-1-1-1-1-1-1-1-1-|
|-----------------|-----------------|-----------------|-----------------|
          1. Five years from now ..
          2. She calls up her friends ..

|-----------------|-----------------|-----------------|-----------------|
|-----------------|-----------------|-----------------|-----------------|
|-5-5-5-5-5-5-5-5-|-0-0-0-0-0-0-0-0-|-2-2-2-2-2-2-2-2-|-3-3-3-3-3-3-3-3-|
|-----------------|-----------------|-----------------|-----------------|
          1. She turns on TV ..

|----------------|-----------------|-----------------|-----------------|----------------|
|----------------|-----------------|-----------------|-----------------|----------------|
|5-5-5-5-5-5-5-5-|-0-0-0-0-0-0-0-0-|-2-2-2-2-2-2-2-2-|-3-3-3-3-3-3-3-3-|-3-3-3-3-3-3-3-3|
|----------------|-----------------|-----------------|-----------------|----------------|
          2. She tags along ..                                         .. down

[ Tab from: http://www.guitartabs.cc/tabs/a/avril_lavigne/sk8er_boi_btab_ver_5.html ]
CHORUS 2
|-----------------|-----------------|-----------------|-----------------|
|-----------------|-----------------|-----------------|-----------------|
|-----------------|-3-3-3-3-3-3-3-3-|-1-1-1-1-1-1-1-1-|-0-0-0-0-0-0-0-0-|
|-1-1-1-1-1-1-1-1-|-----------------|-----------------|-----------------|
          1. He was a skater boy ..
          Now he's a superstar ..
          He was a skater boy ..

|----------------|-----------------|-----------------|-----------------|------------------------------|
|----------------|-----------------|-----------------|-----------------|------------------------------|
|----------------|-3-3-3-3-3-3-3-3-|-1-1-1-1-1-1-1-1-|-0-0-0-0-0-0-0-0-|-1-1-1-1-1-1-1-1-1-1-1-1-1-1-1|
|1-1-1-1-1-1-1-1-|-----------------|-----------------|-----------------|------------------------------|
          Now he's a superstar ..                                      .. worth


BRIDGE pt. 1
|-----------------|-----------------|-----------------|-----------------|
|-----------------|-----------------|-----------------|-----------------|
|-8-8-8-8-8-8-8-8-|-----------------|-----------------|-----------------|
|-----------------|-8-8-8-8-8-8-8-8-|-6-6-6-6-6-6-6-6-|-6-9---9---9---9-|

|-----------------|-----------------|-----------------|-----------------|
|-----------------|-----------------|-----------------|-----------------|
|-8-8-8-8-8-8-8-8-|-----------------|-----------------|-----------0-0-0-|
|-----------------|-8-8-8-8-8-8-8-8-|-6-6-6-6-6-6-6-6-|-6-9---9---------|


BRIDGE pt. 2
|-----------------|-----------------|-----------------|-----------------|
|-----------------|-----------------|-----------------|-----------------|
|-5-5-5-5-5-5-5-5-|-5-5-5-5-5-5-5-5-|-----------------|-----------------|
|-----------------|-----------------|-1-1-1-1-1-1-1-1-|-1-1-1-1-1-1-1-1-|
        1.Sorry girl but ..           Out ..
        2.Too bad that ..             See ..

|-----------------|-----------------|-----------------|-----------------|
|-----------------|-----------------|-----------------|-----------------|
|-3-3-3-3-3-3-3-3-|-3-3-3-3-3-3-3-3-|-1-1-1-1-1-1-1-1-|-0-0-0-0-0-0-0-0-|
|-----------------|-----------------|-----------------|-----------------|
1.Now ..                              Friends ..
2.Be                                  Eye ..


VERSE 3
|-----------------|-----------------|-----------------|-----------------|
|-----------------|-----------------|-----------------|-----------------|
|-5-5-5-----5---5-|-0-0-0-----0---0-|-2-2-2-----2---2-|-1-1-1-----1---1-|
|-----------------|-----------------|-----------------|-----------------|
          1. He's just a boy ..

|-----------------|-----------------|-----------------|-----------------|
|-----------------|-----------------|-----------------|-----------------|
|-5-5-5-----5---5-|-0-0-0-----0---0-|-2-2-2-----2---2-|-3---------------|
|-----------------|-----------------|-----------------|-----------------|
          We are in love ..


CHORUS 3
|-----------------|-----------------|-----------------|-----------------|
|-----------------|-----------------|-----------------|-----------------|
|-----------------|-3-3-3-3-3-3-3-3-|-1-1-1-1-1-1-1-1-|-0-0-0-0-0-0-0-0-|
|-1-1-1-1-1-1-1-1-|-----------------|-----------------|-----------------|
          1. I'm with the skater boy ..
          I'll be at the studio ..
          I'm with the skater boy ..

|-----------------|-----------------|-----------------|-----------------|-----------------|
|-----------------|-----------------|-----------------|-----------------|-----------------|
|-----------------|-3-3-3-3-3-3-3-3-|-1-1-1-1-1-1-1-1-|-0-0-0-0-0-0-0-0-|-1---------------|
|-1-1-1-1-1-1-1-1-|-----------------|-----------------|-----------------|-----------------|
          I'll be at the studio ..                                     .. know

Send comments, corrections, etc. to msabell@mbox.com.au
Comments