Avril Lavigne - Sk8er Boi Chords & Tabs

 

Sk8er Boi Chords & Tabs

Avril Lavigne Chords & Tabs

Version: 2 Type: Bass Tab 0 ratings
1 star 2 stars 3 stars 4 stars 5 stars
comments

Sk8er Boi Bass Tab

Tablature Basse 

AVRIL LAVIGNE - SK8ER BOI     par Johan COTE (cotejohan@yahoo.fr)
~~~~~~~~~~~~~~~~~~~~~~~~~~

Intro
G--------------------------------------------------------------
D--------------------------------------------------------------
A--5555555-----------------------------------------------------
E--------------5555555----7777777----6666-5555-----------------      X2

Refrain
G--------------------------------------------------------------
D--------------------------------------------------------------
A--8888888-----------------------------------------------------
E--------------8888888----6666666----5555555-------------------	     X2

Verse 1
G--------------------------------------------------------------
D--------------------------------------------------------------
A--5555555-----------------------------------------------------
E--------------5555555----7777777----6666666-------------------

G--------------------------------------------------------------
D--------------------------------------------------------------
A--5555555-----------------------------------------------------
E--------------5555555----7777777-------8---8------------------

G--------------------------------------------------------------
D--------------------------------------------------------------
A--5555555-----------------------------------------------------
E--------------5555555----7777777----6666666-------------------

G--------------------------------------------------------------
D------------------------------------10------------------------
A--5555555------------------------------10-7-3-----------------
E--------------5555555----7777777--------------3-0-3-1---------
[ Tab from: http://www.guitartabs.cc/tabs/a/avril_lavigne/sk8er_boi_btab_ver_2.html ]
Refrain
G--------------------------------------------------------------
D--------------------------------------------------------------
A--8888888-----------------------------------------------------
E--------------8888888----6666666----5555555-------------------	     X3

G--------------------------------------------------------------
D--------------------------------------------------------------
A--8888888-----------------------------------------------------
E--------------8888888----6666666----5555555--6666666----------

Verse 2
G--------------------------------------------------------------
D--------------------------------------------------------------
A--8888888-----------------------------------------------------
E--------------8888888----6666666----9-9-9-9-------------------      X2

G--------------------------------------------------------------
D--------------------------------------------------------------
A--5555555-----8888888-----------------------------------------
E-------------------------8888888----6666666-5555555-----------      X2


G--------------------------------------------------------------
D--------------------------------------------------------------
A--5-5-------------------------5-5-----------------------------
E---------5-5----7-7----6-5-----------5-5----7-7----8----------


Refrain
G--------------------------------------------------------------
D--------------------------------------------------------------
A--8888888-----------------------------------------------------
E--------------8888888----6666666----5555555-------------------      X3

G--------------------------------------------------------------
D--------------------------------------------------------------
A--8888888-----------------------------------------------------
E--------------8888888----6666666----5555555--6666666----------
Comments