Avril Lavigne - Sk8er Boi Chords & Tabs

 

Sk8er Boi Chords & Tabs

Avril Lavigne Chords & Tabs

Version: 1 Type: Bass Tab 0 ratings
1 star 2 stars 3 stars 4 stars 5 stars
comments

Sk8er Boi Bass Tab

Avril Lavigne - Sk8er Boi
~~~~~~~~~~~~~~~~~~~~~~~~~
Tabbed by Brent (mo_munky@yahoo.com)
Found at Anything But Ordinary (http://www.comeunglued.com/avril/)
Tuning - Standard tuning EADG

intro
G--------------------------------------------------------------
D--------------------------------------------------------------
A--5555555555555-----------------------------------------------
E-----------------------5555555555555--777777777777-6666-55555-

chorus
G---------------------------------------------------------------
D---------------------------------------------------------------
A--33333333333--1111111111111-00000000000-----------------------
E--------------------------------------------------33333333333--

verse 2
G-----------------------------------------------------------
D-----------------------------------------------------------
A--555555555555---------------------------------------------
E-----------------55555555555 ---77777777777---6666666666---

G--------------------------------------------------------------
D--------------------------------------------------------------
A--55555555555-------------------------------------------------
E-----------------555555555555---77777777777---X-X-8--X-X-8----
[ Tab from: http://www.guitartabs.cc/tabs/a/avril_lavigne/sk8er_boi_btab.html ]
G--------------------------------------------------------
D--------------------------------------------------------
A--5555555555--------------------------------------------
E-----------------555555555555--77777777777---6666666666-

G----------------------------------------------------11---------------
D--------------------------------------------------------11--8-7-5-3--
A--555555555----------------------------------9-----------------------
E-----------------555555555555--777777777777--------------------------

interlude thing
G-------------------------------------------------------------
D-------------------------------------------------------------
A--555555555--------------------------------------------------
E-----------------1111111111--8888888888--66666--55555--------

G-------------------------------------------------------
D-------------------------------------------------------
A-------------------------------------------------------
E--000000000--111111111--8888888888--66666--55555-------
then  with a light fuzz or distortion
G--------------------------------------------------------
D--------------------------------------------------------
A--5--------------------------------5-5------------------
E------5-5----7-7---6-6----6-5---------5-5---7-7---6-8---

then back to chorus and thats the song
Comments