Avril Lavigne - Nobodys Home Chords & Tabs

 

Nobodys Home Chords & Tabs

Avril Lavigne Chords & Tabs

Version: 3 Type: Tab 0 ratings
1 star 2 stars 3 stars 4 stars 5 stars
comments

Nobodys Home Tab

Nobody's Home
Avril Lavigne
Under My Skin
Tabbed by: Krista Skujins

I was tired of everyone tabbing this in the wrong key, so I did it myself. 
It's my first tab, but it sounds right to me. Happy playing.

Standard Tuning


Intro:

E -----------1------------1--------------------------------|
B -----1-1-1-----------4----------------1------------2-1---|
G ------------------3---3----------1------------1----------|
D ---3------------1--------------3---3--------3---3--------|
A -----------------------------4------------4--------------|
E ---------------------------------------------------------|

Verse: (Well, I couldn't tell you...)

E -----------------------------------------------|
B ---9-------8------6-------9-------8------6-----|
G ---10------8------6-------10------8------6-----|
D ---10-x8---8-x8---6-x16---10-x8---8-x8---6-x16-|
A ---8-------6------4-------8-------6------4-----|
E -----------------------------------------------|

Pre-Chorus: (What's wrong, what's wrong now...)

E --------------------------|
B ---9-------8------6-------|
G ---10------8------6-------|
D ---10-x8---8-x8---6-x16---|
A ---8-------6------4-------|
E --------------------------|

Chorus: (She wants to go home...)

E ---1------4--------------1------4--------------|
B ---1------4------8-------1------4------8-------|
G ---1------5------8-------1------5------8-------|
D ---3-x8---6-x8---8-x16---3-x8---6-x8---8-x16---|
A ---3------6------6-------3------6------6-------|
E ---1------4--------------1------4--------------|

Verse: (Open your eyes...)

E -----------------------------------------------|
B ---9-------8------6-------9-------8------6-----|
G ---10------8------6-------10------8------6-----|
D ---10-x8---8-x8---6-x16---10-x8---8-x8---6-x16-|
A ---8-------6------4-------8-------6------4-----|
E -----------------------------------------------|

Pre-Chorus: (Be strong, be stong now...)

E --------------------------|
B ---9-------8------6-------|
G ---10------8------6-------|
D ---10-x8---8-x8---6-x16---|
A ---8-------6------4-------|
E --------------------------|

Chorus: (She wants to go home...)
[ Tab from: http://www.guitartabs.cc/tabs/a/avril_lavigne/nobodys_home_tab_ver_3.html ]
E ---1------4--------------1------4--------------|
B ---1------4------8-------1------4------8-------|
G ---1------5------8-------1------5------8-------|
D ---3-x8---6-x8---8-x16---3-x8---6-x8---8-x24---|
A ---3------6------6-------3------6------6-------|
E ---1------4--------------1------4--------------|

Bridge: (Her feelings she hides...)

E -----------------------------------------------|
B -----------------------------------------------|
G ----------8------6--------------8------6-------|
D ---3-x8---8-x8---6-x16---3-x8---8-x8---6-x32---|
A ---3------6------4-------3------6------4-------|
E ---1---------------------1---------------------|

Chorus: (She wants to go home...)

E ---1------4--------------1------4--------------|
B ---1------4------8-------1------4------8-------|
G ---1------5------8-------1------5------8-------|
D ---3-x8---6-x8---8-x16---3-x8---6-x8---8-x24---|
A ---3------6------6-------3------6------6-------|
E ---1------4--------------1------4--------------|

Outro: (She's lost inside...)

E ---1------4--------------1------4--------------|
B ---1------4------8-------1------4------8-------|
G ---1------5------8-------1------5------8-------|
D ---3-x8---6-x8---8-x16---3-x8---6-x8---8-x16---|
A ---3------6------6-------3------6------6-------|
E ---1------4--------------1------4--------------|

End on:

E ------|
B ------|
G ------|
D ---3--|
A ---3--|
E ---1--|


Lyrics:

Well, I couldn't tell you
Why she felt that way;
She felt it
Everyday.

And I couldn't help her.
I just watched her make
The same mistakes
Again.

What's wrong, what's wrong now?
Too many, too many problems.
Don't know where she belongs-
Where she belongs.

She wants to go home,
But nobody's home.
That's where she lies,
Broken inside.
There's no place to go,
No place to go,
To dry her eyes-
Broken inside.

Open your eyes,
And look outside;
Find the reasons 
Why.

You've been rejected,
And now you can't find
What you left
Behind.

Be strong, be stong now.
Too many, too many problems.
Don't know where she belongs-
Where she belongs.

She wants to go home,
But nobody's home.
That's where she lies,
Broken inside.
There's no place to go,
No place to go,
To dry her eyes-
Broken inside.

Her feelings she hides.
Her dreams she can't find.
She's losing her mind.
She's falling behind.
She can't find her place.
She's losing her faith.
She's falling from grace.
She's all over the place.

She wants to go home,
But nobody's home.
That's where she lies,
Broken inside.
There's no place to go,
No place to go,
To dry her eyes-
Broken inside.

She's lost inside, lost inside. Uh oh.
She's lost inside, lost inside. Uh oh.
Comments