Avril Lavigne - Nobodys Home Chords & Tabs

 

Nobodys Home Chords & Tabs

Avril Lavigne Chords & Tabs

Version: 2 Type: Tab 0 ratings
1 star 2 stars 3 stars 4 stars 5 stars
comments

Nobodys Home Tab

   
Tabbed by: David Grogan

You'll need a Capo on 1st Fret	     (if you don't have a Capo you can tune 1 step up
to F, B, E, Ab, C, F)

p = Pull off
h = Hammer on
^ = Up stroke, when there is an up stroke in the tab you will see i have put
brackets around the notes.

I've included some recommendations on what sound setting to use to make it sound
as as possible to the actual recording, this intro sounds great with chorus so if
you have a pedal set the echo level, rate, and depth to about 1 o' clock, and if
 you have a high and low cut filter then cut the high bands.


0:00 - 0:09 (v. quiet, with slight delay)

GUITAR 1
--0-----------------------------0-------------------------------0------------------------------0--|
--------------------------------------------------------------------------------------------------|
--------------------------------------------------------------------------------------------------|
--------------------------------------------------------------------------------------------------|
--------------------------------------------------------------------------------------------------|
--------------------------------------------------------------------------------------------------|

0:09 - 0:19 (use a clean channel and set the gain to just where it starts to
'crunch', with mild chorus and slight reverb)

GUITAR 1
---------------0--------------------------------0------------------------------------------------------------|
-----0--0-------------------------------3-----------------------------------0--------------------------1--0--|
--------------------------------------2-----2-------------------------0--------------------------0-----------|
-2---------2---------------------0--------------------------------2-----2-------------------2-----2----------|
---------------------------------------------------------------3--------------------------3------------------|
-------------------------------------------------------------------------------------------------------------|

0:19 - 0:30 (use a clean channel and set the gain to just where it starts to
'crunch', with mild chorus and slight reverb)

GUITAR 1
----------------0--------------------------------------------------------------|
-----0--0-------------------------------------------------------------------0--|
-----------------------------------------------------------------------0-------|
-2----------2-----------------------------------------------------2-----2------|
----------------------------------------------------------------3--------------|
-------------------------------------------------------------------------------|
[ Tab from: http://www.guitartabs.cc/tabs/a/avril_lavigne/nobodys_home_tab_ver_2.html ]
GUITAR 2
--0------0-----(0)-----0------1------1-----(1)-----1--------0------0-----(0)-----0------0------0-----(0)-----0-----|
--0------0-----(0)-----0------2------2-----(2)-----2--------1------1-----(1)-----1------1------1-----(1)-----1-----|
--0------0-----(0)-----0------1------1-----(1)-----1--------0------0-----(0)-----0------0------0-----(0)-----0-----|
--2------2-----(2)-----2------0------0-----(0)-----0--------2------2-----(2)-----2------2------2-----(2)-----2-----|
--2------2-----(2)-----0---------------------------------------3------3-----(3)-----3------3------3-----(3)-----3--|
--0------0-----(0)-----0-------------------------------------------------------------------------------------------|

0:30 - 0:40 (use a clean channel and set the gain to just where it starts to
'crunch', with mild chorus and slight reverb)

GUITAR 1
--- -------------0--------------------------------------------------------------------------------------------|
-----0--0-------------------------------------------------------------------0---------------------------1--0--|
-----------------------------------------------------------------------0--------------------------0-----------|
-2----------2-----------------------------------------------------2-----2-------------------2------2----------|
----------------------------------------------------------------3--------------------------3------------------|
--------------------------------------------------------------------------------------------------------------|

GUITAR 2
--0------0-----(0)-----0------1------1-----(1)-----1--------0------0-----(0)-----0------0------0-----(0)-----0-----|
--0------0-----(0)-----0------2------2-----(2)-----2--------1------1-----(1)-----1------1------1-----(1)-----1-----|
--0------0-----(0)-----0------1------1-----(1)-----1--------0------0-----(0)-----0------0------0-----(0)-----0-----|
--2------2-----(2)-----2------0------0-----(0)-----0--------2------2-----(2)-----2------2------2-----(2)-----2-----|
--2------2-----(2)-----0---------------------------------------3------3-----(3)-----3------3------3-----(3)-----3--|
--0------0-----(0)-----0-------------------------------------------------------------------------------------------|

0:40 - 0:50 (use a clean channel and set the gain to just where it starts to
'crunch', with mild chorus and slight reverb)

GUITAR 1
--------------------------------------------------------------------------------------------------------------------|
--------------------------------0h1-------------------------------------------1p0------------------------------1----|
--------------------------------0----------------------------------------0------------------------------0--------0--|
--------------------------------2------------------------------------2-----2------------------------2-----2-----2---|
--------------------------------3--------------------------------3-------------------------------3---------------3--|
--------------------------------------------------------------------------------------------------------------------|

GUITAR 2
--0------0-----(0)-----0------1------1-----(1)-----1--------0------0-----(0)-----0------0------0-----(0)-----0-----|
--0------0-----(0)-----0------2------2-----(2)-----2--------1------1-----(1)-----1------1------1-----(1)-----1-----|
--0------0-----(0)-----0------1------1-----(1)-----1--------0------0-----(0)-----0------0------0-----(0)-----0-----|
--2------2-----(2)-----2------0------0-----(0)-----0--------2------2-----(2)-----2------2------2-----(2)-----2-----|
--2------2-----(2)-----0---------------------------------------3------3-----(3)-----3------3------3-----(3)-----3--|
--0------0-----(0)-----0-------------------------------------------------------------------------------------------|
Comments