Avril Lavigne - Nobodys Fool Chords & Tabs

 

Nobodys Fool Chords & Tabs

Avril Lavigne Chords & Tabs

Version: 4 Type: Tab 0 ratings
1 star 2 stars 3 stars 4 stars 5 stars
comments

Nobodys Fool Tab

rtist:avril lavigne
Album:Lets go
Song:Nobody's Fool
E-mail:Greenday_rhcp2002@yahoo.co.uk
Tuning:Standard [EADGBe]


IT IS ALL PLAYED WITH SLIGHT DISTORION AND IS PALM MUTED WERE INDICATED

intro slight distortion
|-------------------------------------------------------|
|-------------------------------------------------------|
|---9-----9------9-----9---------9-----9-----9----9---9-|
|--9--9--9--9---9--9--9--9------9-9---9-9---9-9--9-9----|
|-7----7-----7-6-----6----6----------------0----0----0--|
|---------------------------7h9-----9-----9-------------|

|----------------------------------------------|
|----------------------------------------------|
|---9----9-----9----9-------9----9-----9----9--|
|--9-9--9-9---9-9--9-9-----9-9--9-9---9-9--9-9-|
|-7---7----7-6----6---6--------------0----0----|
|-----------------------7h9----9----9----------|


verse1 palm muted

|-0-0-0-0-0-0-0-0-----------------------------------
|-0-0-0-0-0-0-0-0--4-4-4-4-4-4-4-4--5-5-5-5-5-5-5-5-
|-1-1-1-1-1-1-1-1--4-4-4-4-4-4-4-4--6-6-6-6-6-6-6-6-
|-2-2-2-2-2-2-2-2--4-4-4-4-4-4-4-4--6-6-6-6-6-6-6-6-
|-2-2-2-2-2-2-2-2--2-2-2-2-2-2-2-2--4-4-4-4-4-4-4-4-
|-0-0-0-0-0-0-0-0-----------------------------------


 ------------------0-0-0-0-0-0-0-0------------------
 -2-2-2-2-2-2-2-2--0-0-0-0-0-0-0-0--5-5-5-5-5-5-5-5-
 -2-2-2-2-2-2-2-2--1-1-1-1-1-1-1-1--6-6-6-6-6-6-6-6-
 -2-2-2-2-2-2-2-2--2-2-2-2-2-2-2-2--6-6-6-6-6-6-6-6-
 -0-0-0-0-0-0-0-0--2-2-2-2-2-2-2-2--4-4-4-4-4-4-4-4-
 ------------------0-0-0-0-0-0-0-0------------------


 ------------------0-0-0-0-0-0-0-0-|
 -2-2-2-2-2-2-2-2--0-0-0-0-0-0-0-0-|
 -2-2-2-2-2-2-2-2--1-1-1-1-1-1-1-1-|
 -2-2-2-2-2-2-2-2--2-2-2-2-2-2-2-2-|
 -0-0-0-0-0-0-0-0--2-2-2-2-2-2-2-2-| x1
 ------------------0-0-0-0-0-0-0-0-|

[ Tab from: http://www.guitartabs.cc/tabs/a/avril_lavigne/nobodys_fool_tab_ver_4.html ]
Chorus x1
|-0-0-0-0-0-0-0-0------------------------------------0~-|
|-0-0-0-0-0-0-0-0--4-4-4-4-4-4-4-4--5-5-5-5-5-5-5-5--2~-|
|-1-1-1-1-1-1-1-1--4-4-4-4-4-4-4-4--6-6-6-6-6-6-6-6--2~-|
|-2-2-2-2-2-2-2-2--4-4-4-4-4-4-4-4--6-6-6-6-6-6-6-6--2~-|
|-2-2-2-2-2-2-2-2--2-2-2-2-2-2-2-2--4-4-4-4-4-4-4-4--0~-|
|-0-0-0-0-0-0-0-0---------------------------------------|


.REPEAT VERSE SLIGHT DISTORTION.

.REPEAT CHORUS1 SLIGHT DISTORTION.

.REPEAT VERSE PALM MUTED.

.REPEAT CHORUS1 SLIGHT DISTORTION.

.REPEAT VERSE SLIGHT DESTORTION.

.REPEAT CHORUS1 SLIGHT DISTORTION.

.NOW PLAY WHATS BELOW ALL SLIGHT DISTORTION

Chorus2 x1
|-0-0-0-0-0-0-0-0-----------------------------------
|-0-0-0-0-0-0-0-0--4-4-4-4-4-4-4-4--5-5-5-5-5-5-5-5-
|-1-1-1-1-1-1-1-1--4-4-4-4-4-4-4-4--6-6-6-6-6-6-6-6-
|-2-2-2-2-2-2-2-2--4-4-4-4-4-4-4-4--6-6-6-6-6-6-6-6-
|-2-2-2-2-2-2-2-2--2-2-2-2-2-2-2-2--4-4-4-4-4-4-4-4-
|-0-0-0-0-0-0-0-0-----------------------------------


 -0-0-0-0-0-0-0-0--|
 -2-2-2-2-2-2-2-2--|
 -2-2-2-2-2-2-2-2--|
 -2-2-2-2-2-2-2-2--|
 -0-0-0-0-0-0-0-0--|
 ------------------|

Bridge
|-0~-------------------------0~-------|
|-0~-------4~-------5~-------2~-------|
|-1~-------4~-------6~-------2~-------|
|-2~-------4~-------6~-------2~-------|
|-2~-------2~-------4~-------0~-------|
|-0~----------------------------------|



REPEAT THE CHORUS2 TWICE



 THEN THIS
|-0-0-0-0-0-0-0-0-------------------0-0-0-0-0-0-0-0-|
|-0-0-0-0-0-0-0-0--5-5-5-5-5-5-5-5--2-2-2-2-2-2-2-2-|
|-1-1-1-1-1-1-1-1--6-6-6-6-6-6-6-6--2-2-2-2-2-2-2-2-|
|-2-2-2-2-2-2-2-2--6-6-6-6-6-6-6-6--2-2-2-2-2-2-2-2-|
|-2-2-2-2-2-2-2-2--4-4-4-4-4-4-4-4--0-0-0-0-0-0-0-0-|X1
|-0-0-0-0-0-0-0-0-----------------------------------|




OUTRO/REPEAT 2ND CHORUS X2
 

AND END ON

 |-0~--|
 |-0~--|
 |-1~--|
 |-2~--|
 |-2~--|  THE END
 |-0~--|


NOTES.
IM NOT A BIG FAN OF AVRIL BUT HAVE TO ADMIT SHES NOT BAD.I MAINLY
TABBED THIS SONG FOR MY GIRLFRIEND.SHE LOVES AVRIL AND SHE ASKED
ME TO LEARN THIS SONG. I THINK IT IS 99% CORRECT BUT IF YOU SEE ANY
PLEASE SEND THEM TO ME.ANY COMMENTS WELCOME TO E-MAIL ADDRESS ABOVE.
Comments