Avril Lavigne - Nobodys Fool Chords & Tabs

 

Nobodys Fool Chords & Tabs

Avril Lavigne Chords & Tabs

Version: 1 Type: Bass Tab 0 ratings
1 star 2 stars 3 stars 4 stars 5 stars
comments

Nobodys Fool Bass Tab

Avril Lavigne - Nobody's Fool
Submitted By: punx_not_dead

[ Tab from: http://www.guitartabs.cc/tabs/a/avril_lavigne/nobodys_fool_btab.html ]
Verse(s):
G|----------------------------------------------|
D|----------------------------------------------|
A|------2-2-2-4-4-2-0-0-2-----2-2-2-4-4-2-0-0-2-|
E|-0-0-0-----------------0-0-0------------------|

Chorus:
G|------------------------------------------------|
D|------------------------------------------------|
A|----------0-2-2-22-22-2-4-4-44-44-2-0-0-00-00-2-|
E|-0-0-00-00--------------------------------------|

Post-chorus:
G|-----|
D|-----|
A|-----|
E|-0>>-|
Comments