Avril Lavigne - Naked Chords & Tabs

 

Naked Chords & Tabs

Avril Lavigne Chords & Tabs

Version: 1 Type: Bass Tab 0 ratings
1 star 2 stars 3 stars 4 stars 5 stars
comments

Naked Bass Tab

Avril Lavigne - Naked
Submitted By: punx_not_dead


Verse:
G|----------------------------------------------------------------------|
D|---------------------------0-----------------------------------000000-|
A|----------------3-3-3-3-3-3------------------3-3-3-3-3-3-000000-------|
E|-0-0-0-0-3-3-3-3------------3-0-0-0-0-3-3-3-3-------------------------|
[ Tab from: http://www.guitartabs.cc/tabs/a/avril_lavigne/naked_btab.html ]
Chorus:
G|-----------------------------------------------------------------------|
D|-----------------------------------------------------------------------|
A|--------3-3-3-3-2-2-2-2-0-0-0-0-0-0-0-0--------------------3-3-3-3-3-3-|
E|-3-3-3-3--------------------------------0-0-0-0-0-0-0-0-0-0------------|

G|------------------------------------------------|
D|------------------------------------------------|
A|--------------------------------3-3-3-3-3-3-3-3-|
E|-0-0-0-0-0-0-0-0-3-3-3-3-3-3-3-3----------------|
Comments