Avril Lavigne - My World Chords & Tabs

 

My World Chords & Tabs

Avril Lavigne Chords & Tabs

Version: 2 Type: Tab 0 ratings
1 star 2 stars 3 stars 4 stars 5 stars
comments

My World Tab

   
Song: My World
Artist: Avril Lavigne
Album: Let Go

*CAPO ALL GUITARS ON THE 6TH FRET*


Riff A (Guitar 1)                    Riff B (Guitar 2)
a#--3--3-3--3--3-3--3--3-3--3--3-3--|-----------------------
F---3--3-3--3--3-3--3--3-3--3--3-3--|-----------------------
B#--0--0-0--0--0-0--0--0-0--0--0-0--|-----------------------
G#--0--0-0--0--0-0--0--0-0--0--0-0--|--0---0---0---0--------
D#--2--2-2--0--0-0--3--3-3--2--2-2--|--2---0---3---2--------
A#--3--3-3--3--3-3--3--3-3--3--3-3--|--3---3---3---3--------

Verse

a#--3--3-3--3--3-3--3--3-3--3--3-3--3--3-3--3--3-3--3--3-3--
F---3--3-3--3--3-3--3--3-3--3--3-3--3--3-3--3--3-3--3--3-3--
B#--0--0-0--0--0-0--0--0-0--0--0-0--0--0-0--0--0-0--0--0-0--
G#--0--0-0--0--0-0--0--0-0--0--0-0--0--0-0--0--0-0--0--0-0--
D#--2--2-2--0--0-0--3--3-3--2--2-2--2--2-2--0--0-0--3--3-3--
A#--3--3-3--3--3-3--3--3-3--3--3-3--0--0-0--0--0-0--0--0-0--

(continued)

a#--3--3-3--3--3-3--3--3-3--3--3-3--3--3-3--3--3-3--3--3-3--
F---3--3-3--3--3-3--3--3-3--3--3-3--3--3-3--3--3-3--3--3-3--
B#--0--0-0--0--0-0--0--0-0--0--0-0--0--0-0--0--0-0--0--0-0--
G#--0--0-0--2--2-2--0--0-0--2--2-2--2--2-2--0--0-0--0--0-0--
D#--2--2-2--3--3-3--3--3-3--3--3-3--3--3-3--2--2-2--0--0-0--
A#--0--0-0----------------------------------3--3-3--3--3-3--

(continued)

a#--3--3-3--3--3-3------------------------------------------
F---3--3-3--3--3-3------------------------------------------
B#--0--0-0--0--0-0------------------------------------------
G#--0--0-0--0--0-0------------------------------------------
D#--3--3-3--2--2-2------------------------------------------
A#--3--3-3--3--3-3------------------------------------------

Pre-Chorus A (Guitar 1)             end on

a#--2--2-2--0--0-0--0--0-0--0--0-0--|--3--3-3--3--0-0-0--2--
F---3--3-3--1--1-1--0--0-0--0--0-0--|--3--3-3--3--1-1-1--3--
B#--2--2-2--0--0-0--0--0-0--0--0-0--|--2--2-2--2--0-0-0--2--
G#--0--0-0--2--2-2--2--2-2--2--2-2--|--0--0-0--0--2-2-2--0--
D#----------3--3-3--2--2-2--2--2-2--|-------------3-3-3-----
A#------------------0--0-0--0--0-0--|-----------------------

Pre-Chorus B (Guitar 2)             end on

a#----------------------------------|-----------------------
F-----------------------------------|-----------------------
B#--7--7-7--5--5-5-------------7----|--7---7--7-7-7--5-5----
G#--7--7-7--5--5-5------4/5--7---7--|----7----7-7-7--5-5----
D#--5--5-5--3--3-3------------------|---------5-5-5--3-3----
A#----------------------------------|-----------------------

Chorus A (Guitar 1)

a#--3--3-3--3-3-3-3--3--3-3--3-3-3-3------------------------
F---1--1-1--1-1-1-1--3--3-3--3-3-3-3------------------------
B#--0--0-0--0-0-0-0--0--0-0--0-0-0-0-----(all x2 then:)-----
G#--2--2-2--2-2-2-2--0--0-0--0-0-0-0------------------------
D#--3--3-3--3-3-3-3--2--2-2--2-2-2-2------------------------
A#-------------------3--3-3--3-3-3-3------------------------

(continued)
[ Tab from: http://www.guitartabs.cc/tabs/a/avril_lavigne/my_world_tab_ver_2.html ]
a#--3--3-3--3-3-3-3--0--0-0--0-0-0-0--3-3-3-3-3-3--0-0-0--2-
F---1--1-1--1-1-1-1--0--0-0--0-0-0-0--3-3-3-3-3-3--1-1-1--3-
B#--0--0-0--0-0-0-0--0--0-0--0-0-0-0--2-2-2-2-2-2--0-0-0--2-
G#--2--2-2--2-2-2-2--2--2-2--2-2-2-2--0-0-0-0-0-0--2-2-2--0-
D#--3--3-3--3-3-3-3--2--2-2--2-2-2-2---------------3-3-3----
A#-------------------0--0-0--0-0-0-0------------------------

Chorus B (Guitar 2)

a#----------------------------------------------------------
F-----------------------------------------------------------
B#--5--5-5--5-5-5-5----------------------(all x2 then:)-----
G#--5--5-5--5-5-5-5--5--5-5--5-5-5-5------------------------
D#--3--3-3--3-3-3-3--5--5-5--5-5-5-5------------------------
A#-------------------3--3-3--3-3-3-3------------------------

(continued)

a#----------------------------------------------------------
F-----------------------------------------------------------
B#--5--5-5--5-5-5-5-------------------7-7-7-7-7-7--5-5-5--7-
G#--5--5-5--5-5-5-5--2--2-2--2-2-2-2--7-7-7-7-7-7--5-5-5--7-
D#--3--3-3--3-3-3-3--2--2-2--2-2-2-2--5-5-5-5-5-5--3-3-3--5-
A#-------------------0--0-0--0-0-0-0------------------------

Bridge 1A (Guitar 1)

a#--3--3-3--3--3-3-3--3--3-3--3--3-3-3--3--3-3--3--3-3-3----
F---1--1-1--1--1-1-1--1--1-1--1--1-1-1--3--3-3--3--3-3-3----
B#--0--0-0--0--0-0-0--0--0-0--0--0-0-0--0--0-0--0--0-0-0----
G#--2--2-2--0--0-0-0--2--2-2--0--0-0-0--0--0-0--0--0-0-0----
D#--3--3-3--3--3-3-3--3--3-3--3--3-3-3--2--2-2--0--0-0-0----
A#--------------------------------------3--3-3--3--3-3-3----

(continued)

a#--3--3-3--3--3-3-3----------------------------------------
F---3--3-3--3--3-3-3----------------------------------------
B#--0--0-0--0--0-0-0----------------------------------------
G#--0--0-0--0--0-0-0----------------------------------------
D#--2--2-2--0--0-0-0----------------------------------------
A#--3--3-3--3--3-3-3----------------------------------------

Bridge 1B (Guitar 2)

a#----------------------------------------------------------
F-----------------------------------------------------------
B#----------------------------------------------------------
G#--2--0----2--0-----------------2--0---2--0----------------
D#--3--3----3--3---2--0---2--0---3--3---3--3---2--0---2--0--
A#-----------------3--3---3--3-----------------3--3---3--3--

Bridge 2

a#--0--0--0--0--0--0--0--0--0--0--0--0--2--2--2-------------
F---0--0--0--0--0--0--0--0--0--0--0--0--3--3--3-------------
B#--0--0--0--0--0--0--0--0--0--0--0--0--2--2--2-------------
G#--2--2--0--0--0--0--2--2--2--2--2--2--0--0--0-------------
D#--2--2--2--2--2--2--0--0--2--2--3--3----------------------
A#--0--0--2--2--3--3----------------------------------------


Riff A
Riff A, B
Verse
Pre-Chorus A, B
Chorus A, B
Riff A, B
Verse
Pre-Chorus A, B
Chorus A, B
Bridge 1A, 1B
Bridge 2
Chorus A, B
Comments