Avril Lavigne - My World Chords & Tabs

 

My World Chords & Tabs

Avril Lavigne Chords & Tabs

Version: 1 Type: Bass Tab 0 ratings
1 star 2 stars 3 stars 4 stars 5 stars
comments

My World Bass Tab

Avril Lavigne - My World
Submitted By: punx_not_dead


Verse:
G|--------------------------------------------|
D|--------------------------4-4--4-4----------|
A|-4-4---4-4------------------------4-4---4-4-|
E|----6-4---1-4-6-6-1-4-6-6------------6-4----|
[ Tab from: http://www.guitartabs.cc/tabs/a/avril_lavigne/my_world_btab.html ]
Pre-chorus:
G|----------------------|
D|----------------------|
A|----1111---1111---4444|
E|-4-2----4-2----4-2----|

Chorus:
G|-------1-----------------------------1----------------------|
D|-44-3-4--------44-3-4-6--------44-3-4-33334--------3444463--|
A|---4----44-3-4---4-----44---44---4---------46666666-------4-|
E|----------4---4----------6-4--------------------------------|

take some time, mellow out. . .
G|--------------|
D|------1-3-4-6-|
A|-1-3-4--------|
E|--------------|
Comments