Avril Lavigne - My Happy Ending Chords & Tabs

 

My Happy Ending Chords & Tabs

Avril Lavigne Chords & Tabs

Version: 3 Type: Tab 0 ratings
1 star 2 stars 3 stars 4 stars 5 stars
comments

My Happy Ending Tab

Author/Artist: avril lavigne
Title: my happy ending
Album: let go
Transcribed by: matt


intro
------------------------------------------------------------------------------|
------------------------------------------------------------------------------|
-----------7-7-----------------7-7--------------------------------------------|
-9-9--5-5--7-7--7-7--9-9--5-5--7-7--7~----------------------------------------|
-9-9--5-5--5-5--7-7--9-9--5-5--5-5--7~----------------------------------------|
-7-7--3-3-------5-5--7-7--3-3-------5~----------------------------------------|

verse
-0-0-0-0-3-3-3-3-2-2-2-2-0-0-0-0----------------------------------------------|
-3-3-3-3-3-3-3-3-3-3-3-3-2-2-2-2-x2-------------------------------------------|
------------------------------------------------------------------------------|
------------------------------------------------------------------------------|
------------------------------------------------------------------------------|
------------------------------------------------------------------------------|

chorus pt 1
------------------------------------------------------------------------------|
------------------------------------------------------------------------------|
---------------------77777777------------------------77777777-----------------|
-5~-7~-5~-7~-5555555577777777777777777777777755555555777777777777777777777777-|
-5~-7~-5~-7~-5555555555555555777777777777777755555555555555557777777777777777-|
-3~-5~-3~-5~-33333333--------555555555555555533333333--------5555555555555555-|
[ Tab from: http://www.guitartabs.cc/tabs/a/avril_lavigne/my_happy_ending_tab_ver_3.html ]
chorus pt 2(1st time)
------------------------------------------------------------------------------|
------------------------------------------------------------------------------|
---------77777777-------------------------------------------------------------|
-555555557777777777777777999999992222222222222222555--------------------------|
-555555555555555577777777999999992222222222222222555--------------------------|
-33333333--------55555555777777770000000000000000333--------------------------|

intro
verse
chorus pt 1

chorus pt 2(2nd time)
------------------------------------------------------------------------------|
------------------------------------------------------------------------------|
---------77777777-------------------------------------------------------------|
-555555557777777777777777999999992222222222222222555555555555555--------------|
-555555555555555577777777999999992222222222222222555555555555555--------------|
-33333333--------55555555777777770000000000000000333333333333333--------------|

interlude
------------------------------------------------------------------------------|
------------------------------------------------------------------------------|
------------------------------------------------------------------------------|
-7777777777777777555555555555555577777777777777775555555555555555-------------|
-7777777777777777555555555555555577777777777777775555555555555555-------------|
-5555555555555555333333333333333355555555555555553333333333333333-------------|


------------------------------------------------------------------------------|
------------------------------------------------------------------------------|
------------------------------------------------------------------------------|
-999999999999999955555555555555557777777777777777-----------------------------|
-999999999999999955555555555555557777777777777777-----------------------------|
-777777777777777733333333333333335555555555555555-----------------------------|

intro x3
Comments