Avril Lavigne - My Happy Ending Chords & Tabs

 

My Happy Ending Chords & Tabs

Avril Lavigne Chords & Tabs

Version: 1 Type: Bass Tab 0 ratings
1 star 2 stars 3 stars 4 stars 5 stars
comments

My Happy Ending Bass Tab

Author/Artist: avril lavigne
Title: my happy ending
Album: let go
Transcribed by: matt
hafnt seen any tabs of dis 1 round either...

------------------------------------------------------------------------------|
------------------------------------------------------------------------------|
-----------5-5-----------------5-5--------------------------------------------|
-7-7--3-3-------5-5--7-7--3-3-------5-----------------------------------------|

 verse
-----------------------------|------------------------------------------------|
-----------------------------|------------------------------------------------|
----------------5~---------x2|------------------------------------------------|
--7~-----3~------------5~----|---3~-----5~-----x2-----------------------------|

chorus
------------------------------------------------------------------------------|
------------------------------------------------------------------------------|
---------55555555------------------------55555555-----------------------------|
-33333333--------555555555555555533333333--------5555555555555555-------------|

------------------------------------------------------------------------------|
------------------------------------------------------------------------------|
---------55555555-------------------------------------------------------------|
-33333333--------55555555777777770000000000000000333--------------------------|

intro
verse
[ Tab from: http://www.guitartabs.cc/tabs/a/avril_lavigne/my_happy_ending_btab.html ]
------------------------------------------------------------------------------|
------------------------------------------------------------------------------|
---------55555555------------------------55555555-----------------------------|
-33333333--------555555555555555533333333--------5555555555555555-------------|

------------------------------------------------------------------------------|
------------------------------------------------------------------------------|
---------55555555-------------------------------------------------------------|
-33333333--------555555557777777700000000000000003333333333333333-------------|


------------------------------------------------------------------------------|
------------------------------------------------------------------------------|
------------------------------------------------------------------------------|
-5555555555555555333333333333333355555555555555553333333333333333-------------|


------------------------------------------------------------------------------|
------------------------------------------------------------------------------|
------------------------------------------------------------------------------|
-55555555555555555777777777777777733333333333333335555555555555555------------|

--------------|---------------------------------------------------------------|
--------------|---------------------------------------------------------------|
-----5--------|---------55555555------------------------55555555--------------|
-3-------5----|-33333333--------555555555555555533333333----------------------|

------------------------------------------------------------------------------|
------------------------------------------------------------------------------|
------------------------------------------------------------------------------|
-55555555777777770000000000000000333333333333333------------------------------|

chorus
intro 1  times
Comments