Avril Lavigne - Mobile Live Chords & Tabs

 

Mobile Live Chords & Tabs

Avril Lavigne Chords & Tabs

Version: 1 Type: Tab 0 ratings
1 star 2 stars 3 stars 4 stars 5 stars
comments

Mobile Live Tab

I decided to tab this well cause i was bored and stuff but have fun with it

e----------------------------------------------------------------------------|
b----------------------------------------------------------------------------|
g--------------------------9-9-9---------------------------------------------|
D---9-9-9----7-7-7-7-7-7---9-9-9----------repeat this a couple times---------|
A---9-9-9----7-7-7-7-7-7---7-7-7---------------------------------------------|
E---7-7-7----5-5-5-5-5-5-----------------------------------------------------|
[ Tab from: http://www.guitartabs.cc/tabs/a/avril_lavigne/mobile_live_tab.html ]
after that its the same progression only a little more pause between the power cords
the chorus is pretty much an A Em then Bm and an f#
e-----------------------------------2-2-2-2-2-2---2-2------------------------|
b----2-2-2-2-2-2--------------------3-3-3-3-3-3---2-2------------------------|
g----2-2-2-2-2-2---1-1-1-1-1-1-1----4-4-4-4-4-4---3-3------------------------|
D----2-2-2-2-2-2---2-2-2-2-2-2-2----4-4-4-4-4-4---4-4------------------------|
A------------------2-2-2-2-2-2-2----2-2-2-2-2-2---4-4------------------------|
E-----------------------------------2-2-2-2-2-2---2-2------------------------|


play around with it  and pay attention to how avril plays it on her DVD if you don't 
her DVD listen to her let go album #5 is mobile and listen to the progression you'll get it 
you play around with it alot!! have Fun!! Rock on
Comments