Avril Lavigne - Mobile Chords & Tabs

 

Mobile Chords & Tabs

Avril Lavigne Chords & Tabs

Version: 1 Type: Bass Tab 0 ratings
1 star 2 stars 3 stars 4 stars 5 stars
comments

Mobile Bass Tab

Avril Lavigne - Mobile
Submitted By: punx_not_dead


Verse:
G|--------------------------|
D|--------------------------|
A|-2-2---0-0---2-2---0-0----|
E|----2-2---0-0---2-2---0-0-|
[ Tab from: http://www.guitartabs.cc/tabs/a/avril_lavigne/mobile_btab.html ]
Chorus:
G|---------------------------------------------|	
D|---------------------------------------------|	
A|-0-0-0-0-0-0-0-------------2-2-2-2-2-2-2-2-0-|	
E|--------------0-0-0-0-0-0-0------------------|

Bridge:
G|-------------------------------------------|
D|-------------------------------------------|
A|-00000000--------00000000--------22222222--|
E|---------00000000--------00000000----------|
Comments