Avril Lavigne - Losing Grip Chords & Tabs

 

Losing Grip Chords & Tabs

Avril Lavigne Chords & Tabs

Version: 1 Type: Tab 0 ratings
1 star 2 stars 3 stars 4 stars 5 stars
comments

Losing Grip Tab

Avril Lavigne - Losing Grip
Submitted By: punx_not_dead
Album: Let Go


Intro and verse
Eb|--------------------------------------------------------|
Bb|--------------------------------------------------------|
Gb|-----------5------7------5------------------------------|
Db|--7-----3--5---5--7---3--5------------------------------|
Ab|--7-----3------5------3---------------------------------|
Db|--7-----3------5------3---------------------------------|

Chorus
Eb|-------------------------------------------------|
Bb|-------------------------------------------------|
Gb|-------------------------------------------------|
Db|---9-9-9-----5-5-5-5---5-5-5---5-5-5-5-----------|
Ab|---7-7-7-----2-2-2-2---3-3-3---2-2-2-2-----------|
Db|---7-7-7-----2-2-2-2---3-3-3---2-2-2-2-----------|

Eb|--------------------------------------------------|
Bb|--------------------------------------------------|
Gb|--------------------------------------------------|
Db|---9-9-9-----5-5-5-5---5-5-5---0-0-0-0------------|
Ab|---7-7-7-----2-2-2-2---3-3-3---0-0-0-0------------|
Db|---7-7-7-----2-2-2-2---3-3-3---0-0-0-0------------|
[ Tab from: http://www.guitartabs.cc/tabs/a/avril_lavigne/losing_grip_tab.html ]
Bridge1
Eb|---2-2-2--------------------------------|---X--X----|
Bb|---3-3-3-----6-6-6-6---8-8-8---6-6-6----|---X--X----|
Gb|---2-2-3-----5-5-5-5---7-7-7---5-5-5----|---X--X----|
Db|---0-0-0-----3-3-3-3---5-5-5---3-3-3----|---X--X----|
Ab|---0-0-0-----3-3-3-3---5-5-5---3-3-3----|---X--X----|
Db|---0-0-0-----3-3-3-3---5-5-5---3-3-3----|---X--X----|

Bridge2
Eb|--------------------------------------------------|
Bb|--------------------------------------------------|
Gb|--------------------------------------------------|
Db|---0-0-0-----3-3-3-3---5-5-5---3-3-3--------------|
Ab|---0-0-0-----3-3-3-3---5-5-5---3-3-3--------------|
Db|---0-0-0-----3-3-3-3---5-5-5---3-3-3--------------|

Interlude
Eb|---------------------------------------------------|
Bb|---------------------------------------------------|
Gb|---9--9--9----5-5-5---5-5-5---5-5-5---------------|
Db|---9--9--9----5-5-5---5-5-5---5-5-5---------------|
Ab|---7--7--7----2-2-2---3-3-3---2-2-2---------------|
Db|---7--7--7----2-2-2---3-3-3---2-2-2---------------|

Eb|-----------------------------------------------------------|
Bb|-----------------------------------------------------------|
Gb|-----------------------------------------------------------|
Db|-----------------------------------------------------------|
Ab|-----------------------------------------------------------|
Db|---3*-3*-3*-3*---------------------------------------------|
Comments