Avril Lavigne - Losing Grip Chords & Tabs

 

Losing Grip Chords & Tabs

Avril Lavigne Chords & Tabs

Version: 2 Type: Bass Tab 0 ratings
1 star 2 stars 3 stars 4 stars 5 stars
comments

Losing Grip Bass Tab

iv tried to get bass tabs for this but they r all 
wrong so im correctin them b******s

these tabs may be long but they are easy to 
follow and they are absolutely correct! 
I even listened to the song whilst writing these!
Plus i checked them out my self! 100% correct!

1/2 step down tuning

Bass doesn't play intro!!!!!

Verse
Gb|----|----|----|----|
Db|----|----|----|----|  x4
Ab|----|----|----|----|
Eb|-5~-|-1~-|-3~-|-1~-|

Pre-Chorus  (I was left to cry there, waiting out......etc)
Gb|---------|---------|---------|---------|
Db|---------|---------|---------|---------|  x1 
Ab|---------|---------|---------|---------|
Eb|-5-5-5-5-|-1-1-1-1-|-3-3-3-3-|---------|  

Chorus
Gb|-------|--------|-------|--------|      \
Db|-------|--------|-------|--------|       \
Ab|-------|--------|-------|--------|        \ 
Eb|-5--5~-|-0-0-0~-|-1--1~-|-0-0-0~-|         \
                                               \  x2
Gb|-------|--------|-------|--------|          /
Db|-------|--------|-------|--------|         /
Ab|-------|--------|-------|-5-5-5~-|        /
Eb|-5--5~-|-0-0-0~-|-1--1~-|--------|       /

After Chorus
Gb|----|----|----|----|
Db|----|----|----|----|  x1
Ab|----|----|----|----|
Eb|-5~-|-1~-|-3~-|-1~-|

Verse
Gb|----|----|----|----|
Db|----|----|----|----|  x4
Ab|----|----|----|----|
Eb|-5~-|-1~-|-3~-|-1~-|

Pre-Chorus  (I was left to cry there, waiting out......etc)
Gb|---------|---------|---------|---------|
Db|---------|---------|---------|---------|  x1 
Ab|---------|---------|---------|---------|
Eb|-5-5-5-5-|-1-1-1-1-|-3-3-3-3-|---------|
[ Tab from: http://www.guitartabs.cc/tabs/a/avril_lavigne/losing_grip_btab_ver_2.html ]
Chorus
Gb|-------|--------|-------|--------|      \
Db|-------|--------|-------|--------|       \
Ab|-------|--------|-------|--------|        \ 
Eb|-5--5~-|-0-0-0~-|-1--1~-|-0-0-0~-|         \
                                               \  x2
Gb|-------|--------|-------|--------|          /
Db|-------|--------|-------|--------|         /
Ab|-------|--------|-------|-5-5-5~-|        /
Eb|-5--5~-|-0-0-0~-|-1--1~-|--------|       /

Bridge (crying out loud.....etc) [the quite part]
Gb|-------|--------|-------|--------|
Db|-------|--------|-------|--------|  x2
Ab|-5~~~~~~~~~~~~~~~~~~~~~~~~~~~~~~-|
Eb|-------|--------|-------|--------|

Loud Part Of The Bridge (open your eyes......etc)
Gb|-------|--------|-------|--------|
Db|-------|--------|-------|--------|  x1
Ab|-5--5~-|--------|-------|--------|
Eb|-------|-1-1-1~-|-3--3~-|-1-1-1~-| 

Gb|-------|--------|-------|--------|
Db|-------|--------|-------|--------|  x1
Ab|-5--5~-|--------|-------|--------|
Eb|-------|-1-1-1~-|-3--3~-|-3-3-3~-|

Quite Part Again
Gb|-------|--------|-------|--------|
Db|-------|--------|-------|--------|  x2
Ab|-------|--------|-------|--------|
Eb|-5~~~~~~~~~~~~~~~~~~~~~~~~~~~~~--|

Chorus
Gb|-------|--------|-------|--------|      \
Db|-------|--------|-------|--------|       \
Ab|-------|--------|-------|--------|        \ 
Eb|-5--5~-|-0-0-0~-|-1--1~-|-0-0-0~-|         \
                                               \  x4
Gb|-------|--------|-------|--------|          /
Db|-------|--------|-------|--------|         /
Ab|-------|--------|-------|-5-5-5~-|        /
Eb|-5--5~-|-0-0-0~-|-1--1~-|--------|       /

This tab may be long but its absolutely correct!!!!
i do not lie, these tabs follow rite through the song so
you can just follow the easily! (i should get a reward for this)

Avril Rocks! and so do MetallicA!!!!!!!!!

THESE TABS WERE CREATED BY PERKS!!!!!!!!!!!
Comments