Avril Lavigne - Im With You Chords & Tabs

 

Im With You Chords & Tabs

Avril Lavigne Chords & Tabs

Version: 3 Type: Tab 0 ratings
1 star 2 stars 3 stars 4 stars 5 stars
comments

Im With You Tab

   
Signs
H-Hamer on
P-Pull Off
~-Vibrato
S-Slide
^-Bend
P^-Pre-Bend

E-A-D-G-B-E

(Intro)
(Guitar 1-Jesse-Acousic-Clean)Riff A
|-0-0--0-0--0-0---------------0-0--0-0--0-0|
|-0-0--4-4--7-7---------------0-0--4-4--7-7|
|-2-2--4-4--7-7---------------2-2--4-4--7-7|(Repeat As Needed)
|-2-2--2-2--5-5---------------2-2--2-2--5-5|(Note: Dont Lift Your Fingers off the
|-0-0--0-0--0-0---------------0-0--0-0--0-0| to get the Scraping sound)
|-0-0--0-0--0-0---------------0-0--0-0--0-0|


(Guitar 2-Evan-Semi-Hallow-Light Dist.)Riff B
|--------------------------------------------------------------------------------------------------|
|--------------------------------------------------(dont pick the slides )--(dont pick the slide)--|
|------------------11H12p11-----------------11h12p11s9s11-----------------11h12s14-----------------|
|--------------------------------------------------------------------------------------------------|
|--------------------------------------------------------------------------------------------------|
|--------------------------------------------------------------------------------------------------|
(Verse)
(Guitar 2 Out)
(Guitar 1) Riff C
|-0-0--0-0--0-0-0-0|
|-0-0--4-4--7-7-7-7|
|-2-2--4-4--7-7-7-7|(Repeat 4 Times)
|-2-2--2-2--5-5-5-5|
|-0-0--0-0--0-0-0-0|(Note Listen for the Frist Hammer Pull Off from Riff B)
|-0-0--0-0--0-0-0-0|

(Guitar 2) Riff D
|----------------------------------0--|
|----------------------------------0--|
|----------------------------------2--|
|--12--11--9--7----9----5~--2---------|
|----------------------------------0--|
|----------------------------------0--|
(Chorus)

(Guitar 1)
|-0-0--0-0--0-0-0-0|
|-0-0--4-4--7-7-7-7|
|-2-2--4-4--7-7-7-7|
|-2-2--2-2--5-5-5-5|
|-0-0--0-0--0-0-0-0|
|-0-0--0-0--0-0-0-0|

(Guitar 2)
|-0-0--0-0--0-0--------|
|-0-0--4-4--7-7--------|
|-2-2--4-4--7-7--------|
|-2-2--2-2--5-5-----0--|
|-0-0--0-0--0-0---0----|
|-0-0--0-0--0-0-0------|

Verse 2
Guitar 1 Plays riff C
[ Tab from: http://www.guitartabs.cc/tabs/a/avril_lavigne/im_with_you_tab_ver_3.html ]
(Guitar 2)
|----------------------------------|
|----------------------------------|
|----------------------------------|
|----------------------------------|
|P^12---10---P^14-----10-----------|
|----------------------------------|

(Guitar 2)
|---------------------|
|---------------------|
|---8h9p8--7--5-------|
|---------------------|
|---------------------|
|---------------------|

(Guitar 2) Riff D
|----------------------------------0--|
|----------------------------------0--|
|-12--11--9--7----9----5~---2---------|
|----------------------------------2--|
|----------------------------------0--|
|----------------------------------0--|

Chrous 2
(Guitar 1)
|-0-0--0-0--0-0-0-0|
|-0-0--4-4--7-7-7-7|
|-2-2--4-4--7-7-7-7|
|-2-2--2-2--5-5-5-5|
|-0-0--0-0--0-0-0-0|
|-0-0--0-0--0-0-0-0|

(Guitar 2)
|-0-0--0-0--0-0--------|
|-0-0--4-4--7-7--------|
|-2-2--4-4--7-7--------|
|-2-2--2-2--5-5-----0--|
|-0-0--0-0--0-0---0----|
|-0-0--0-0--0-0-0------|

Bridge
(Guitar 2-lighty Dist.)
|-0-0-0-0--0-0-0-0|
|-2-2-2-2--6-6-7-7|
|-2-2-4-4--5-5-7-7|(repeat as needed)
|-0-0-4-4--7-7-5-5|
|-0-0-0-0--0-0-0-0|
|-0-0-0-0--0-0-0-0|

 (Guitar 1 Lightly Dist.)
|-0-0--0-0--0-0-0-0|
|-0-0--4-4--7-7-7-7|
|-2-2--4-4--7-7-7-7|
|-2-2--2-2--5-5-5-5|
|-0-0--0-0--0-0-0-0|
|-0-0--0-0--0-0-0-0|
Guitar 2 Out
Guitar 1 Clean
 (Guitar 1)
|-0-0--0-0--0-0-0-0|
|-0-0--4-4--7-7-7-7|
|-2-2--4-4--7-7-7-7|
|-2-2--2-2--5-5-5-5|
|-0-0--0-0--0-0-0-0|
|-0-0--0-0--0-0-0-0|
(Guitar 2 Heavy Dist.)
|----P.M-----------|
|4-4-4-4-4-4-------|
|4-4-4-4-4-4-------|
|2-2-2-2-2-2-------|
|------------------|
|------------------|
|------------------|

(Guitar 1 Lightly Dist.)
|-0-0--0-0--0-0-0-0|
|-0-0--4-4--7-7-7-7|
|-2-2--4-4--7-7-7-7|
|-2-2--2-2--5-5-5-5|
|-0-0--0-0--0-0-0-0|
|-0-0--0-0--0-0-0-0|

(Guitar 2 Heavy Dist.)
|----P.M-----------|
|4-4-4-4-4-4-------|
|2-2-2-2-2-2-------|
|2-2-2-2-2-2-------|
|------------------|
|------------------|
|------------------|

(Outro)
(Guitar 1 Clean)
|-0-0--0-0--0-0-0-0|
|-0-0--4-4--7-7-7-7|
|-2-2--4-4--7-7-7-7|
|-2-2--2-2--5-5-5-5|
|-0-0--0-0--0-0-0-0|
|-0-0--0-0--0-0-0-0|

(Guitar 2 Lightly Dist.)
|--------------------|
|--------------------|
|-11h12p11-----------|
|--------------------|
|--------------------|
Comments