Avril Lavigne - Freak Out Chords & Tabs

 

Freak Out Chords & Tabs

Avril Lavigne Chords & Tabs

Version: 5 Type: Tab 0 ratings
1 star 2 stars 3 stars 4 stars 5 stars
comments

Freak Out Tab

Tuning: Drop D
        (DADGBE)
[ Tab from: http://www.guitartabs.cc/tabs/a/avril_lavigne/freak_out_tab_ver_5.html ]
|--------------------------------------------------------------------|
|--------------------------------------------------------------------|
|--------8/10\8----------8/10\8----------8/10\8----------10/12\10\8--|
|--1-1---8/10\8--1--3-3--8/10\8--3--6-6--8/10\8--3--6-6--10/12\10\8--|
|--1-1---6/8-\6--1--3-3--6/8-\6--3--6-6--6/8-\6--3--6-6--8-/10\8-\6--|
|--1-1-----------1--3-3----------3--6-6----------3--6-6--------------|

|--------6/8-\6------------------------------------------------------|
|--------8/10\8------------------------------------------------------|
|--------8/10\8----------8/10\8----------8/10\8----------10/12\10\8--|
|--1-1---8/10\8--1--3-3--8/10\8--3--6-6--8/10\8--3--6-6--10/12\10\8--|
|--1-1-----------1--3-3--6/8-\6--3--6-6--6/8-\6--3--6-6--8-/10\8-\6--|
|--1-1-----------1--3-3----------3--6-6----------3--6-6--------------|
Comments