Avril Lavigne - Freak Out Chords & Tabs

 

Freak Out Chords & Tabs

Avril Lavigne Chords & Tabs

Version: 1 Type: Bass Tab

Freak Out Bass Tab

Intro (x2)
g -------------------------------- |
d -------------------------------- |
a ---6-6-------------------------- |
e ---------1-1----4-4----4-4------ |

Verse (x4)
g -------------------------------- |
d -------------------------------- |
a ---6-6-------------------------- |
e ---------1-1----4-4----4-4------ |

Pre Chorus (x1)
g -------------------------------- |
d -------------------------------- |
a -------------------------------- |
e ---1--1--1--1--3--4--4--4--4---- |

Chorus (x2)

g ----------------------------------------------------------------- |
d ----------------------------------------------------------------- |
a --6-6-6-6-6-6-6-6-----------------3-3-3-3-6-6-6-6---------------- |
e ------------------6-6-6-6-6-6-6-6-----------------4-4-4-4-4-4-4-4 |

Intro (x2)
g -------------------------------- |
d -------------------------------- |
a ---6-6-------------------------- |
e ---------1-1----4-4----4-4------ |

[ Tab from: http://www.guitartabs.cc/tabs/a/avril_lavigne/freak_out_btab.html ]
Verse (x4)
g -------------------------------- |
d -------------------------------- |
a ---6-6-------------------------- |
e ---------1-1----4-4----4-4------ |

Pre Chorus (x1)
g -------------------------------- |
d -------------------------------- |
a -------------------------------- |
e ---1--1--1--1--3--4--4--4--4---- |

Chorus (x2)

g ----------------------------------------------------------------- |
d ----------------------------------------------------------------- |
a --6-6-6-6-6-6-6-6-----------------3-3-3-3-6-6-6-6---------------- |
e ------------------6-6-6-6-6-6-6-6-----------------4-4-4-4-4-4-4-4 |

Bridge – don’t play

Chorus (x2)

g ----------------------------------------------------------------- |
d ----------------------------------------------------------------- |
a --6-6-6-6-6-6-6-6-----------------3-3-3-3-6-6-6-6---------------- |
e ------------------6-6-6-6-6-6-6-6-----------------4-4-4-4-4-4-4-4 |

Pause – “freak out let it go”

Intro (x2)
g -------------------------------- |
d -------------------------------- |
a ---6-6-------------------------- |
e ---------1-1----4-4----4-4------ |

I dont know how accurate this is, its my first tab....good luck