Avril Lavigne - Forgotten Chords & Tabs

 

Forgotten Chords & Tabs

Avril Lavigne Chords & Tabs

Version: 3 Type: Tab 0 ratings
1 star 2 stars 3 stars 4 stars 5 stars
comments

Forgotten Tab

Avril Lavigne
Forgotten Intro
Originally came from piano and I transposed it to guitar.

Tabbed by:n2sd_182
Email:canuck_inbred@yahoo.com

Tuning: standard EADGBe


(Ah-ha-ha-ha)
[ Tab from: http://www.guitartabs.cc/tabs/a/avril_lavigne/forgotten_tab_ver_3.html ]
e|----8----------------------------------|
B|--8------------------------------------|
G|--------8-7----------------------------|
D|---------------------------------------| (x4)
A|------6---5----------------------------|
E|--8-----------7------------------------|

sounds 100% to me.

Verse (i'm giving up, on everything...)

e|---------------------------------------|
B|---------------------------------------|
G|---------------------------------------|
D|---------------------------------------| (x4)
A|------6---5----------------------------|
E|--8-----------6------------------------|
Comments