Avril Lavigne - Forgotten Chords & Tabs

 

Forgotten Chords & Tabs

Avril Lavigne Chords & Tabs

Version: 2 Type: Tab 0 ratings
1 star 2 stars 3 stars 4 stars 5 stars
comments

Forgotten Tab

-----------------------------------------------------------
Forgotten - Avril Lavigne
-----------------------------------------------------------

Tabbed By: ky_roxz
Tuning: Standard
It will work better if you have heavy distortion ;)
-----------------------------------------------------------

Piano Intro
Aah Aah...

I'm giving up on everything 
Because you messed me up
Don't know how much you screwed it up
You never listen...
That's just too bad

Verse:
Because I'm moving on...
E|--------------------------------------------------|
B|--------------------------------------------------|
G|---------------7----------------------------------|
D|---5---8---7---7--x3--5---------------------------|
A|---5---8---7---5------5--hold---------------------|
E|---3---6---5---5------3---------------------------|
[ Tab from: http://www.guitartabs.cc/tabs/a/avril_lavigne/forgotten_tab_ver_2.html ]
Chorus:
Have you forgotten... 
E|--------------------------------------------------|
B|--------------------------------------------------|
G|-------------------8-8-8-8--5-5-5-5---------------|
D|-5-5-5-5--8-8-8-8--8-8-8-8--5-5-5-5--x3---5-------|
A|-5-5-5-5--8-8-8-8--6-6-6-6--3-3-3-3-------5--hold-|
E|-3-3-3-3--6-6-6-6--6-6-6-6--3-3-3-3-------3-------|

Ah ah, ah ah...

Repeat verse
Repeat chorus

Bridge:

I know I wanna run away...
E|--------------------------------------------------|
B|--------------------------------------------------|
G|--------------------------------------------------|
D|-5--5--5--8--8--8--7--7--7--5--5--5---------------|
A|-5--5--5--8--8--8--7--7--7--5--5--5-x4------------|
E|-3--3--3--6--6--6--5--5--5--3--3--3---------------|

Chorus x12

End on:
E|--------------------------------------------------|
B|--------------------------------------------------|
G|-5------------------------------------------------|
D|-5------------------------------------------------|
A|-3------------------------------------------------|
E|--------------------------------------------------|
Comments