Avril Lavigne - Dont Tell Me Chords & Tabs

 

Dont Tell Me Chords & Tabs

Avril Lavigne Chords & Tabs

Version: 1 Type: Tab 0 ratings
1 star 2 stars 3 stars 4 stars 5 stars
comments

Dont Tell Me Tab

   
Intro/ Verse 6x                                                                                  PM = *    
                                                                                                                                                               
             E               B          A
E|--7---7---7-7-7-7-7-7----7---7---5-5-5-5-5-5-------------------------------------------------------|
B|--7---7---7-7-7-7-7-7----7---7---5-5-5-5-5-5-------------------------------------------------------|
G|--9---9---9-9-9-9-9-9----7---7---5-5-5-5-5-5-------------------------------------------------------|
D|--9---9---9-9-9-9-9-9----9---9---7-7-7-7-7-7-------------------------------------------------------|
A|--7---7---7-7-7-7-7-7----9---9---7-7-7-7-7-7-------------------------------------------------------|
E|-------------------------7---7---5-5-5-5-5-5-------------------------------------------------------|

Pre-Chorus  2x

                   
           G#                        B
E|--4---4---4-4-4-4-4-4-----7---7---7-7-7-7-7-7------------------------------------------------------|
B|--4---4---4-4-4-4-4-4-----7---7---7-7-7-7-7-7------------------------------------------------------|
G|--4---4---4-4-4-4-4-4-----7---7---7-7-7-7-7-7------------------------------------------------------|
D|--6---6---6-6-6-6-6-6-----9---9---9-9-9-9-9-9------------------------------------------------------|
A|--6---6---6-6-6-6-6-6-----9---9---9-9-9-9-9-9------------------------------------------------------|
E|--4---4---4-4-4-4-4-4-----7---7---7-7-7-7-7-7------------------------------------------------------|

Chorus

Guitar 1
      E         A            E          B
E|--7---7---5-5-5-5-5-5----7---7---7-7-7-7-7-7-------------------------------------------------------|
B|--7---7---5-5-5-5-5-5----7---7---7-7-7-7-7-7-------------------------------------------------------|
G|--9---9---5-5-5-5-5-5----9---9---7-7-7-7-7-7-------------------------------------------------------|
D|--9---9---7-7-7-7-7-7----9---9---9-9-9-9-9-9-----  2x  --------------------------------------------| 
A|--7---7---7-7-7-7-7-7----7---7---9-9-9-9-9-9-------------------------------------------------------|
E|----------5-5-5-5-5-5------------7-7-7-7-7-7-------------------------------------------------------|
[ Tab from: http://www.guitartabs.cc/tabs/a/avril_lavigne/dont_tell_me_tab.html ]
      E         B             A          B
E|--7---7---7-7-7-7-7-7-----5---5---7-7-7-7-7-7------------------------------------------------------|
B|--7---7---7-7-7-7-7-7-----5---5---7-7-7-7-7-7------------------------------------------------------|
G|--9---9---7-7-7-7-7-7-----5---5---7-7-7-7-7-7------------------------------------------------------|
D|--9---9---9-9-9-9-9-9-----7---7---9-9-9-9-9-9------  2x  ------------------------------------------|
A|--7---7---9-9-9-9-9-9-----7---7---9-9-9-9-9-9------------------------------------------------------|
E|----------7-7-7-7-7-7-----5---5---7-7-7-7-7-7------------------------------------------------------|

Guitar 2
                                                                           End chorus  with this
E|----------------------------------------------------------|------------------------------------------------|
B|----------------------------------------------------------|------------------------------------------------|
G|------------------------9-8-9-----------------------------|---------9-8-6----------------------------------|
D|----------------------------------------------------------|-----------------9------------------------------|
A|----------------------------------------------------------|------------------------------------------------|
E|----------------------------------------------------------|------------------------------------------------|


Bridge
     A                                 G#                     B
E|--5---5-5--5-5--5-5-5-5----4---4-4--4-4--4-4-4-4----7--7--7--7--7--7--7------------------|
B|--5---5-5--5-5--5-5-5-5----4---4-4--4-4--4-4-4-4----7--7--7--7--7--7--7------------------|
G|--5---5-5--5-5--5-5-5-5----4---4-4--4-4--4-4-4-4----7--7--7--7--7--7--7------------------|
D|--7---7-7--7-7--7-7-7-7----6---6-6--6-6--6-6-6-6----9--9--9--9--9--9--9------------------|
A|--7---7-7--7-7--7-7-7-7----6---6-6--6-6--6-6-6-6----9--9--9--9--9--9--9------------------|
E|--5---5-5--5-5--5-5-5-5----4---4-4--4-4--4-4-4-4----7--7--7--7--7--7--7------------------|
        * *       * * * *        * *       * * * *  
     E           B   
E|--7--7--7--7--7—7~ -----------------------------------------------------------------------------------|
B|--7--7--7--7--7—7~ -----------------------------------------------------------------------------------|
G|--9--9--9--9--7—7~ -----------------------------------------------------------------------------------|
D|--9--9--9--9--9-9~ -----------------------------------------------------------------------------------|
A|--7--7--7--7--9—9~ -----------------------------------------------------------------------------------|
E| -------------7—7~ -----------------------------------------------------------------------------------|

Chorus

Outro

       E                B
E|--7--7--7-7-7-7-------7~ -----------------------------------------------------------------------------|
B|--7--7--7-7-7-7-------7~ -----------------------------------------------------------------------------|
G|--9--9--9-9-9-9-------7~ -----------------------------------------------------------------------------|
D|--9--9--9-9-9-9-------9~ -----------------------------------------------------------------------------|
A|--7--7--7-7-7-7-------9~ -----------------------------------------------------------------------------|
E|----------------------7~ -----------------------------------------------------------------------------|

Comments