Avril Lavigne - Complicated Chords & Tabs

 

Complicated Chords & Tabs

Avril Lavigne Chords & Tabs

Version: 2 Type: Tab 0 ratings
1 star 2 stars 3 stars 4 stars 5 stars
comments

Complicated Tab

Avril Lavigne
Complicated
Let Go
Tabbed By Jay Simpkin
Note: I'm too lazy to figure out how many times to play each riff so do it 
yourself. The 10101010 in the verse is tens not one, open. 

Intro Gtr 1 (Clean) "Uh-huh...."
E---------------------|
B---------------------|
G--7-7-7-7-7----10-10-|
D--7-7-7-7-7--7-10-10-|
A--5-5-5-5-5--7--8-7--|
E-------------5-------|

Gtr 2 (Dist)
E----------------------------------8-----------13-12----8-------------
B-3-----------3-----------6p5--10----10---8-10------10---10--8-10-5br6
G---------------------------------------10-----------------10---------
D----4-5-4/7----4-5-4/7-----------------------------------------------
A---------------------------------------------------------------------
E---------------------------------------------------------------------
     pm.....|   pm.....|
[ Tab from: http://www.guitartabs.cc/tabs/a/avril_lavigne/complicated_tab_ver_2.html ]
Verse (Clean) "Chill out..."
E---------------------------------------------|
B---------------------------------------------|
G--7-7-7-7-7------------1010101010-1010101010-|
D--7-7-7-7-7--9-9-9-9-9-1010101010-1010101010-|
A--5-5-5-5-5--9-9-9-9-9--8-8-8-8-8-7-7-7-7-7--|
E-------------7-7-7-7-7-----------------------|

Pre-Chorus (Dist) "Somebody else..."
E----------------------------------------|
B----------------------------------------|
G-3-3-3-3-3-3--7-7-7-7-7--3-3-3-3-3-3--5-|
D-3-3-3-3-3-3--7-7-7-7-7--3-3-3-3-3-3--5-|
A-1-1-1-1-1-1--5-5-5-5-5--1-1-1-1-1-1--3-|
E----------------------------------------|

Chorus (Dist) "Why'd you have to...."
E-------------------------------------|
B-------------------------------------|
G------------------------10\----------|
D-----7-7----3-5-5---3----x----5--3h5-|
A-3/5------3-------3---3--8\-3---3----|
E-------------------------------------|

Post Chorus (Dist) "Honesty, and promise me..."
E--------------------|
B--------------------|
G--------------------|
D----3--5--7--8--10--|
A--1-----------------|
E--------------------|

Bridge (Dist) "No, no, no..."
E----------------------------|
B--11-10----11-10----11-10-8-|
G--------10-------10---------|
D----------------------------|
A----------------------------|
E----------------------------|

I'm ALMOST 100% sure this is right, except for the post chorus, it's a 
little sketchy but, oh well.
Comments