Avril Lavigne - Complicated Chords & Tabs

 

Complicated Chords & Tabs

Avril Lavigne Chords & Tabs

Version: 4 Type: Bass Tab 0 ratings
1 star 2 stars 3 stars 4 stars 5 stars
comments

Complicated Bass Tab

   
here is a great song done by a great singer and band, tabbed by a great bassits.   


Verse 1
G-------------------------------------------------
D---3--3--3-3--3-3--3-3--------------------------- 
A-----------------------  -5--5--5-5--5-5--5-5---- 
E-------------------------------------------------

G-------------------------------------------------
D------------------------------------------------- 
A---1--1--1-1--1-1--1-1---3--3--3-3--3-3-3--------
E-------------------------------------------------

pre chorus
G------------------------------
D------------------------------
A------------------------------
E-1-------1--5------5--1----1-3

chorus
G---------------------------
D---------------------------   x3
A-5-5-55-------------3-3-3-3
E-------6-6--6---1-1--------

end of chorus(honestly, promise me,....)
G-----------------------
D----------------------
A---------------1------
E-3-3-3-3-3-3-3--------

[ Tab from: http://www.guitartabs.cc/tabs/a/avril_lavigne/complicated_btab_ver_4.html ]
Verse 2 play this once through, but instead on the A 3 notes play the verse con'dt
G-------------------------------------------------
D-3-----3--3--------------------------------------
A------------5----5--5----1-----1--1---3-----3--3-
E-------------------------------------------------

verse con'dt
G--------------
D---------------
A-3--5--9-11-12-9
E---------------

-chorus
- pre chorus

bridge( without avril singing)
G----------------------------------------------
D----------------------------------------------
A-8-8-8-8-8-8-8-6-6-6-6-6-6-6-6-4-4-4-4-4-4-4-4
E----------------------------------------------
 (play this at the end when avril is not singing, just efore she comes in)
G-------------
D-------------
A-3-8--9-14---
E-------------

Bridge (when avril is singing)
G----------------------------------------------
D----------------------------------------------
A-8-8-8-8-8-8-8-6-6-6-6-6-6-6-6-4-4-4-4-4-4-4-4
E----------------------------------------------

-pre chorus(don't play ony guitar)
-chorus 

that's the whole song it sounds pretty good,,... Ya i tabbed the whole thing so
follow it, and if u have corrections, which i doubt, correct it...
Comments