Avril Lavigne - Complicated Chords & Tabs

 

Complicated Chords & Tabs

Avril Lavigne Chords & Tabs

Version: 3 Type: Bass Tab 0 ratings
1 star 2 stars 3 stars 4 stars 5 stars
comments

Complicated Bass Tab

   
I played this with the real song at it souns right

verse 
G-----------------------------------------------
D-----------------------------------------------
A-----------------------------------------------
E--3-----3-3---3-3---3-3----5---5-5--5-5----5-5-

verse con't ( and if u can only..)
G--------------------
D--------------------
A--1-1--3--3-3-----1-
E---------------1-1--

pre chorus
G---------------------
D---------------------
A---------------------
E-1---1--5---8---1--3-

chorus
G---------------------
D---------------------
A--55-55--------------     x3
E-------66-6--11-3333-
[ Tab from: http://www.guitartabs.cc/tabs/a/avril_lavigne/complicated_btab_ver_3.html ]
post chorus
G--------------
D--------------
A--------------
E-3-3-3-3-3-3-1****

Verse 2
G----------------------------------------------
D----------------------------------------------
A--3*****-3-3--3-3--3*****-3-3---5--5-5--5---5-
E----------------------------------------------

variation
G------------
D---------10-
A-7-7-9-10---
E------------


-pre chorus
-chorus

Bridge
G-------------------------------------
D-------------------------------------
A-------------------------------------
E-8-8-8-8-8-8-5-5-5-5-5-5-3-3-3-3-3-3-

G----------
D----------
A-------10-
E-3-8-99---
Comments