Avril Lavigne - Complicated Chords & Tabs

 

Complicated Chords & Tabs

Avril Lavigne Chords & Tabs

Version: 2 Type: Bass Tab 0 ratings
1 star 2 stars 3 stars 4 stars 5 stars
comments

Complicated Bass Tab

Avril Lavigne - Complicated
~~~~~~~~~~~~~~~~~~~~~~~~~~~
Tabbed by Brent (mo_munky@yahoo.com)
Found at Anything But Ordinary (http://www.comeunglued.com/avril/)
Tuning - Standard tuning EADG

This is not a note for note translation but just a 
guide. It's got most of it just not some stuff, 
which u can improvise.

Bass comes in
G----------------------------
D-----------4h5p4------------
A----------------------------
E-5--5-7------------7---8----

Chorus
G---------------------------------------------
D---------------------------------------4h5p4-
A---------------------------------------------
E---8 -8--X-7-7---7---3-3----X-5-5------------

G-------------------------------------------
D-------------------------------------------
A---------------------------------------4h5-
E---8--8--X--7-7---7---3-3---X--5-5---------
[ Tab from: http://www.guitartabs.cc/tabs/a/avril_lavigne/complicated_btab_ver_2.html ]
G-----------------------------------------------------
D-----------------------------------------------------
A---------------4h5p4---------------------------------
E--8-8-X-7-7-----------3-3--X---5-5---0000000000---6~-

Verse
G-------------------------------------------------------------
D-------------------------------------------------------------
A---------------------------2------2--------------------------
E--1------------2-------0-----------------2--2------2-2-------

G-----------------------------------
D-----------------------------------
A---2---------5---------------------
E------2-2-------3---2-----0-2-2--2-

G---------------------
D---------------------
A---17--19--20--17----
E---------------------  not 1 then 7    17.....got it

No..no..no
G----------------------------------------------
D----------------------------------------------
A----------------------------------------------
E----5-5--555555--3--3-33333/8-333333----------

That's about it... there's a little solo type thing 
in after the last part but you can just improvise it.
Not that hard. Remeber not note for note... just basic...
Comments