Avril Lavigne - Anything But Ordinary Chords & Tabs

 

Anything But Ordinary Chords & Tabs

Avril Lavigne Chords & Tabs

Version: 3 Type: Tab 0 ratings
1 star 2 stars 3 stars 4 stars 5 stars
comments

Anything But Ordinary Tab

Estimados amigos(as) guitarrístas:
Le garantizo el 100% de los sonido y la cantidad de los traste en ésta canción.
Favor de aplicar todas las técnicas que se hace notar debajo de los trastes si
ésta la posee, para así no eliminar los elementos que con lleva éste tablero.
Cualquier corrección o error, favor de hacérmelo saber a través de ésta dirección
de correo electrónico, vic_man_01@hotmail.com.

LEYENDA:

(\)  =  Slide Descendente  
(<>) =  Armónico Artificial
(X#) =  Número de Veces que se juega en los Trastes o Acordes señalados.

ORDEN:

( Por favor, siga la secuencia del tablero; están ordenados como es la canción ).

MODO:

Las posiciones de las cuerdas en la guitarra de modo Estándar; (e)(B)(G)(D)(A)(E).

Intro A: ( Guitar 1 )
e------------------------------------------------------------
B------------------------------------------------------------
G-----2----0----0----0---------------------------------------
D---3----2----0----0-----------------------------------------
A--5-5--3-3--2-2--2-2----------------------------------------
E----------------------------------------------------------X2

Intro A: ( Guitar 2 )
e------------------------------------------------------------
B------------------------------------------------------------
G------------------------------------------------------------
D--33333333\22222222-00000000000000000-----------------------
A--55555555\33333333\22222222022222222-----------------------
E----------------------------------------------------------X1

Outro Intro A: ( Guitar 2 )
e------------------------------------------------------------
B------------------------------------------------------------
G------------------------------------------------------------
D--33333333\22222222-0000000000000000------------------------
A--55555555\33333333\2222222222222222------------------------
E----------------------------------------------------------X1

Intro A: ( Guitar 3 )
e------------------------------------------------------------
B------------------------------------------------------------
G------------------------------------------------------------
D------3--333------2--222------0-----------------------------
A--5-5-5--555--3-3-3--333--2-2-2-----------------------------
E----------------------------------------------------------X1

Verse A: ( Guitar 1 )
e----3--333-------0--000-------0--000-------3--333---2--222--
B----3--333-------3--333-------0--000-------1--111---3--333--
G----0--000-------0--000-------0--000-------0--000---2--222--
D----0--000-------0--000-------2--222-------2--222-0-0--000--
A----2--222-------2--222-------2--222-----3-3--333-----------
E--3-3--333(X2)-2-2--222(X2)-0-0--000(X2)------------------X1

Interlude A: ( Guitar 3 )
e------------------------------------------------------------
B------------------------------------------------------------
G--<7>-------------------------------------------------------
D------------------------------------------------------------
A------------------------------------------------------------
E----------------------------------------------------------X1

Verse B: ( Guitar 1 ) ( Guitar 2 )
e----3--333-------0--000-------0--000-------3--333---2--222--
B----3--333-------3--333-------0--000-------1--111---3--333--
G----0--000-------0--000-------0--000-------0--000---2--222--
D----0--000-------0--000-------2--222-------2--222-0-0--000--
A----2--222-------2--222-------2--222-----3-3--333-----------
E--3-3--333(X2)-2-2--222(X2)-0-0--000(X2)------------------X1


Chorus A: ( Guitar 1 )
e-----0--------2--------3----3-----0-------------------------
B-----1--------3--------3----3-----0-------------------------
G-----0-----22-2--------0----0-----0-------------------------
D--22-2-----00-0(X2)----0----0-----2-------------------------
A--33-3(X2)----------22-2-22-2--22-2-------------------------
E--------------------33-3-22-2--00-0(X2)-------------------X1

Chorus B: ( Guitar 1 ) 
e-----0--------2--------0------------------------------------
B-----1--------3--------0------------------------------------
G-----0-----22-2--------0------------------------------------
D--22-2-----00-0(X2)----2------------------------------------
A--33-3(X2)----------22-2------------------------------------
E--------------------00-0(X4)------------------------------X1
[ Tab from: http://www.guitartabs.cc/tabs/a/avril_lavigne/anything_but_ordinary_tab_ver_3.html ]
Chorus C: ( Guitar 2 ) ( Guitar 3 )
e-----0--------0--------3----3----0--------------------------
B-----1--------1--------3----3----0--------------------------
G-----2--------0--------0----0----0--------------------------
D--22-2-----22-2--------0----0----2--------------------------
A--00-0(X2)-33-3(X2)-22-2-22-2-22-2--------------------------
E--------------------33-3-22-2-00-0(X2)--------------------X1

Chorus D: ( Guitar 2 ) ( Guitar 3 )
e-----1--------3--------0------------------------------------
B-----3--------1--------0------------------------------------
G--22-2--------0--------0------------------------------------
D--00-0(X2)-22-2--------2------------------------------------
A-----------33-3(X2)-22-2------------------------------------
E--------------------00-0(X4)------------------------------X1

Interlude B: ( Guitar 3 ) ( Verse A ) 
e------------------------------------------------------------
B------------------------------------------------------------
G------------------------------------------------------------
D------------------------------------------------------------
A---2----0-----2s--------------------------------------------
E--3-3s-2-2s-03--0-3s--------------------------------------X1

( Verse B )

( Chorus A )

( Chorus B )

( Chorus C )

( Chorus D )

Chorus E: ( Guitar 2 ) ( Guitar 3 )
e-----1--------0--------3------------------------------------
B-----3--------1--------3------------------------------------
G--22-2--------0--------0------------------------------------
D--00-0(X2)-22-2--------0------------------------------------
A-----------33-3(X2)-22-2------------------------------------
E--------------------33-3(X4)------------------------------X1

Bridge A: ( Guitar 1 )
e--xxxx-xxxxxxx-xxxxxxx-xxxxxxxxxxxxxxxxxxxxxxx--------------
B--xxxx-xxxxxxx-xxxxxxx-xxx33333333xxxxxxxxxxxx--------------
G--xxxx-xxx4444-4442222-22222222222xxxxxxxx4444--------------
D--2222-2224444-4442222-22200000000222222224444--------------
A--2222-2222222-2220000-000--------222222222222--------------
E--0000-000------------------------00000000----------------X1

Bridge B: ( Guitar 1 )
e--xxxxxxxxxxxxxxxxxxxxxxxxxxxxxxxxxxxxxxxxxxxxxxxxxxx-------
B--xxxxxxxxxxx33333333xxxxxxxxxxxxxxxx2222222222222222-------
G--444xxxxxxxx22222222xxxxxxxx444444442222222222222222-------
D--444222222220000000022222222444444442222222222222222-------
A--22200000000--------22222222222222220000000000000000-------
E-----00000000--------00000000-----------------------------X1

Bridge C: ( Guitar 2 )
e------------------------------------------------------------
B------------------------------------------------------------
G------------------------------------------------------------
D-----------------------------------------555555555555-------
A--555555555555-555555555555-222222222222-333333333333-------
E--333333333333-222222222222-000000000000------------------X1

Bridge D: ( Guitar 2 ) ( Guitar 3 ) 
e--222222222222----------------------------------------------
B--333333333333----------------------------------------------
G--222222222222----------------------------------------------
D--000000000000----------------------------------------------
A------------------------------------------------------------
E----------------------------------------------------------X1

Interlude C: ( Guitar 1 )
a------------------------------------------------------------
E------------------------------------------------------------
B---2-2---0-0-0-0-0------------------------------------------
G--3-3-3-2-2-2-2-2-------------------------------------------
D------------------------------------------------------------
A----------------------------------------------------------X1

( Chorus A )

( Chorus B )

( Chorus C )

( Chorus D )

( Chorus C )

( Chorus D )

Outro Chorus E: ( Guitar 2 ) ( Guitar 3 )
e-----1--------0----------------------------------------------
B-----3--------1----------------------------------------------
G--22-2--------0----------------------------------------------
D--00-0(X2)-22-2----------------------------------------------
A-----------33-3(X2)------------------------------------------
E-----------------------------------------------------------X1

Interlude D: ( Guitar 1 )
e---5-5---3-3-3-3-3-------------------------------------------
B--6-6-6-5-5-5-5-5--------------------------------------------
G-------------------------------------------------------------
D-------------------------------------------------------------
A-------------------------------------------------------------
E-----------------------------------------------------------X1

O.K., eso era todo.  Suerte!...
Comments