Avril Lavigne - Alone Chords & Tabs

 

Alone Chords & Tabs

Avril Lavigne Chords & Tabs

Version: 2 Type: Tab 0 ratings
1 star 2 stars 3 stars 4 stars 5 stars
comments

Alone Tab

----------------------------------------------------------------------------
		         Alone - Avril Lavigne
----------------------------------------------------------------------------Tabbed by: burntomato
Tuning: standard

This awesome song is from The Best Damn Thing Limited Edition! It ROCKS!!!
Hope you guys enjoy (:


Intro/Verse:
e|--12--12--12--12-14---10--10--10-10----|
B|---x---x---x---x--x----x---x---x--x----|
G|---9---9---9---9--9----9---9---9--9----| (x11)
D|---------------------------------------|
A|---------------------------------------|
E|---------------------------------------|

e|--12--12--12--12-14--|
B|---x---x---x---x--x--|
G|---9---9---9---9--9--|
D|---------------------|
A|---------------------|
E|---------------------|


Chorus: (You're so obvious...)

e|----------------------------------------------------|
B|----------------------------------------------------|
G|-12--9--9--9---------------10-10-10-----9--9--9--9--| (x2)
D|-12--9--9--9--10-10-10-10--10-10-10-10--9--9--9--9--|
A|-10--7--7--7--10-10-10-10---8--8--8-10--7--7--7--7--|
E|---------------8--8--8--8------------8--------------|

e|----------------------------------------------------|
B|----------------------------------------------------|
G|--9--9--9--9---------------------------12-12-12-12--|
D|--9--9--9--9--10-10-10-10--10-10-10-10-12-12-12-12--|
A|--7--7--7--7--10-10-10-10--10-10-10-10-10-10-10-10--|
E|---------------8--8--8--8---8--8--8--8--------------|

e|----------------------------------------------------|
B|----------------------------------------------------|
G|-12-12--9--9---------------10-10-10-----9--9--9--9--|
D|-12-12--9--9--10-10-10-10--10-10-10-10--9--9--9--9--|
A|-10-10--7--7--10-10-10-10---8--8--8-10--7--7--7--7--|
E|---------------8--8--8--8------------8--------------|


Post Chorus: (Uh uh oh oh oh...)
                                   (slide down on the second time)
e|--12--12--12--12-14---10--10--10-10----|
B|---x---x---x---x--x----x---x---x--x----|
G|---9---9---9---9--9----9---9---9--9----| (x2)
D|---------------------------------------|
A|---------------------------------------|
E|---------------------------------------|


Verse: (Hey bro, I'm just trying to let you know...)

e|--12--12--12--12-14---10--10--10-10----|
B|---x---x---x---x--x----x---x---x--x----|
G|---9---9---9---9--9----9---9---9--9----| (x7)
D|---------------------------------------|
A|---------------------------------------|
E|---------------------------------------|

e|--12--12--12--12-----------------------|
B|---x---x---x---x-----------------------|
G|---9---9---9---9------2/---------------| 
D|---------------------------------------|
A|---------------------------------------|
E|---------------------------------------|


Chorus: (You're so obvious...)

e|----------------------------------------------------|
B|----------------------------------------------------|
G|-12--9--9--9---------------10-10-10-----9--9--9--9--| (x2)
D|-12--9--9--9--10-10-10-10--10-10-10-10--9--9--9--9--|
A|-10--7--7--7--10-10-10-10---8--8--8-10--7--7--7--7--|
E|---------------8--8--8--8------------8--------------|
[ Tab from: http://www.guitartabs.cc/tabs/a/avril_lavigne/alone_tab_ver_2.html ]
e|----------------------------------------------------|
B|----------------------------------------------------|
G|--9--9--9--9---------------------------12-12-12-12--|
D|--9--9--9--9--10-10-10-10--10-10-10-10-12-12-12-12--|
A|--7--7--7--7--10-10-10-10--10-10-10-10-10-10-10-10--|
E|---------------8--8--8--8---8--8--8--8--------------|

e|----------------------------------------------------|
B|----------------------------------------------------|
G|-12-12--9--9---------------10-10-10-----9--9--9--9--|
D|-12-12--9--9--10-10-10-10--10-10-10-10--9--9--9--9--|
A|-10-10--7--7--10-10-10-10---8--8--8-10--7--7--7--7--|
E|---------------8--8--8--8------------8--------------|


Bridge (If you, want to, be my uh uh oh...)

e|-----------------------------------------------------------------|
B|-----------------------------------------------------------------|
G|--9--9--x-x-x-x----------------10-10--x-x-x-x--x-x-x-x--x-x-x-x--| (x3)
D|--9--9--x-x-x-x--7--7--x-x-x-x-10-10--x-x-x-x--x-x-x-x--x-x-x-x--|
A|--7--7--x-x-x-x--7--7--x-x-x-x--8--8--x-x-x-x--x-x-x-x--x-x-x-x--|
E|-----------------5--5--x-x-x-x-----------------------------------|

e|-----------------------------------------------------------------|
B|-----------------------------------------------------------------|
G|--9--9--x-x-x-x----------------10~-------------------------------|
D|--9--9--x-x-x-x--7--7--x-x-x-x-10~-------------------------------|
A|--7--7--x-x-x-x--7--7--x-x-x-x--8~-------------------------------|
E|-----------------5--5--x-x-x-x-----------------------------------|

Chorus (x2): (You're so obvious...)

e|----------------------------------------------------|
B|----------------------------------------------------|
G|-12--9--9--9---------------10-10-10-----9--9--9--9--| (x2)
D|-12--9--9--9--10-10-10-10--10-10-10-10--9--9--9--9--|
A|-10--7--7--7--10-10-10-10---8--8--8-10--7--7--7--7--|
E|---------------8--8--8--8------------8--------------|

e|----------------------------------------------------|
B|----------------------------------------------------|
G|--9--9--9--9---------------------------12-12-12-12--|
D|--9--9--9--9--10-10-10-10--10-10-10-10-12-12-12-12--|
A|--7--7--7--7--10-10-10-10--10-10-10-10-10-10-10-10--|
E|---------------8--8--8--8---8--8--8--8--------------|

e|----------------------------------------------------|
B|----------------------------------------------------|
G|-12-12--9--9---------------10-10-10-----9--9--9--9--|
D|-12-12--9--9--10-10-10-10--10-10-10-10--9--9--9--9--|
A|-10-10--7--7--10-10-10-10---8--8--8-10--7--7--7--7--|
E|---------------8--8--8--8------------8--------------|

Outro: (Uh uh oh oh oh...)

e|--12--12--12--12-14---10--10--10-10----|
B|---x---x---x---x--x----x---x---x--x----|
G|---9---9---9---9--9----9---9---9--9----| (x4)
D|---------------------------------------|
A|---------------------------------------|
E|---------------------------------------|

e|---------------------------------------|
B|---------------------------------------|
G|---------------------------------------|
D|--7~-----------------------------------|
A|--7~-----------------------------------|
E|--5~-----------------------------------|


please rate and comment :D

| /  slide up
| \  slide down
| ~  hold note

============================================================================
Comments