Avoid One Thing - Pop Punk Band Chords & Tabs

 

Pop Punk Band Chords & Tabs

Avoid One Thing Chords & Tabs

Version: 1 Type: Tab 0 ratings
1 star 2 stars 3 stars 4 stars 5 stars
comments

Pop Punk Band Tab

   
-----------------------------------------------------------------------------
	              AVOID ONE THING - "Pop Punk Band"
-----------------------------------------------------------------------------
Tabbed by:TCurtis
Email:SuM41_RoX182@hotmail.com

Tuning:

intro:(hold chords)
e|------------------------------------------------------------------------|
B|------------------------------------------------------------------------|
G|-2----------------------------7-----------------------------------------|
D|-2--------2--------4----------7-----------------------------------------|x2
A|-0--------2--------4----------5-----------------------------------------|
E|----------0--------2----------------------------------------------------|

(bore bore us, bore us everyone adore us...)
e|-----------------------------------------------------------------|
B|----------------------------------------------------88-77--------|
G|-2222222222222222----------------------------77-7---77-66--------|
D|-2222222222222222-2222222222222222-4444-2222-77-7----------------|
A|-0000000000000000-2222222222222222-4444-2222-55-5----------------|
E|------------------0000000000000000-2222-0000---------------------|
pm ................ ................

(same old song the same old harmony...)
e|------------------------------------------------------------------|
B|------------------------------------------------------------------|
G|-----------77777777-99999999--------------------------------------|
D|-4444-2222-77777777-99999999--------------------------------------|
A|-4444-2222-55555555-77777777--------------------------------------|
E|-2222-0000--------------------------------------------------------|

verse:
e|---------------------------------------------------|
B|---------------------------------------------------|
G|-222222---------------777777-----------------------|
D|-222222-222222-444444-777777-----------------------|
A|-000000-222222-444444-555555-----------------------|
E|--------000000-222222------------------------------|
pm ...... ...... ...... ......
[ Tab from: http://www.guitartabs.cc/tabs/a/avoid_one_thing/pop_punk_band_tab.html ]
e|---------------------------------------------------|
B|---------------------------------------------------|
G|-222222-----------------7--------------------------|
D|-222222-222222-4--------7--------------------------|
A|-000000-222222-4--------5-(hold)-------------------|
E|--------000000-2-(stop)----------------------------|
pm ...... ......

(bore us bore us...)
e|-------------------------------------------------------------|
B|--------------------------------------------------88-77------|
G|-2-2-2-2-2-2-2-2----------------------------77-7--77-66------|
D|-2-2-2-2-2-2-2-2-2-2-2-2-2-2-2-2--4444-2222-77-7-------------|
A|-0-0-0-0-0-0-0-0-2-2-2-2-2-2-2-2--4444-2222-55-5-------------|
E|-----------------0-0-0-0-0-0-0-0--2222-0000------------------|

play the "same old songs..." part

solo thingy:
e|--------------------------------------------------------------------------|
B|--------------------------------------------------------------------------|
G|--------------------------------------------------------------------------|
D|-7-76-7/9-7\---/7-7-6-2-2-4-2---------------------------------------------|
A|-------------------------------4-5-4--------------------------------------|
E|-------------------------------------7-5----------------------------------|

play verse open

play "bore us bore us..." part

play "same old songs..." part

end on:
e|------|
B|------|
G|--2---|
D|--2---|
A|--0---|
E|------|

lyrics:
i wanna be in a pop punk band
tryin to ride to pop punk land
i know what i'm gonna wear
i'll have spiky pop punk hair

bore us, bore us, get us to the chorus
just cant stop it, got it at hot topic
no need to read the lyric sheet
it's the same old song, the same old harmony

i'm gonna find me a pop punk girl
its not tough in a pop punk world
a love that can't be wrong
i wanna sing like tom delonge

bore us, bore us, get us to the chorus
just cant stop it, got it at hot topic
no need to read the lyric sheet
it's the same old song, the same old harmony

i got it at hot topic
my parents dropped me off and paid for it
get all my ideas from mtv
i got it at hot topic
my parents dropped me off and paid for it
prepackaged punk conformity
so fuck me

bore us, bore us, get us to the chorus
just cant stop it, got it at hot topic
no need to read the lyric sheet
it's the same old song, the same old harmony


i think i got most of that right.  if i didnt add coments and tell me where i fucked up.

| /  slide up
| \  slide down
| h  hammer-on
| p  pull-off
| ~  vibrato
| +  harmonic
| x  Mute note
=============================================================================
Comments